ISO-10303-21;
HEADER;
FILE_DESCRIPTION(('starvars output'),'2;1');
FILE_NAME('cv20120701154236000001085.stp','15:42:36   2012/07/01',(
   'Thomas Industrial Network Germany GmbH'),(
   'Thomas Industrial Network Germany GmbH'),'unknown preprocess','ACIS'
   ,'unknown authorization');
FILE_SCHEMA(('CONFIG_CONTROL_DESIGN {UNKNOWN IMPLEMENTATION LEVEL}'));
ENDSEC;
/* ISO 10303-21 file written by STEP Caselib, ProSTEP GmbH, Germany */
DATA;
#1=CARTESIAN_POINT('POINT102',(-3.84924392165219E-016,0.0E+000,
   2.0955E+000));
#2=VERTEX_POINT('VERTEX102',#1);
#3=CARTESIAN_POINT('POINT103',(2.22738461538461E-001,
   -1.36383467620311E-017,2.0955E+000));
#4=VERTEX_POINT('VERTEX103',#3);
#5=CARTESIAN_POINT('POS162',(1.1136923076923E-001,-1.01037050337422E-015
   ,2.0955E+000));
#6=DIRECTION('DIR255',(1.0E+000,0.0E+000,1.83690953073357E-016));
#7=VECTOR('VEC69',#6,1.0E+000);
#8=LINE('STRAIGHT69',#5,#7);
#9=EDGE_CURVE('EDGE161',#2,#4,#8,.T.);
#10=ORIENTED_EDGE('COEDGE321',*,*,#9,.F.);
#11=CARTESIAN_POINT('POINT104',(3.84924392165219E-016,
   1.01037050337422E-015,-2.0955E+000));
#12=VERTEX_POINT('VERTEX104',#11);
#13=CARTESIAN_POINT('POS163',(0.0E+000,0.0E+000,0.0E+000));
#14=DIRECTION('DIR256',(1.0E+000,-2.18952885050753E-047,
   1.83690953073357E-016));
#15=DIRECTION('DIR257',(-1.83690953073357E-016,-6.0462265083164E-016,
   1.0E+000));
#16=AXIS2_PLACEMENT_3D('AXIS94',#13,#14,#15);
#17=CIRCLE('ELLIPSE48',#16,2.0955E+000);
#18=EDGE_CURVE('EDGE162',#2,#12,#17,.T.);
#19=ORIENTED_EDGE('COEDGE322',*,*,#18,.T.);
#20=CARTESIAN_POINT('POINT105',(2.22738461538462E-001,
   1.01037050337422E-015,-2.0955E+000));
#21=VERTEX_POINT('VERTEX105',#20);
#22=CARTESIAN_POINT('POS164',(1.11369230769231E-001,
   1.01037050337422E-015,-2.0955E+000));
#23=DIRECTION('DIR258',(-1.0E+000,-0.0E+000,-1.83690953073357E-016));
#24=VECTOR('VEC70',#23,1.0E+000);
#25=LINE('STRAIGHT70',#22,#24);
#26=EDGE_CURVE('EDGE163',#21,#12,#25,.T.);
#27=ORIENTED_EDGE('COEDGE323',*,*,#26,.F.);
#28=CARTESIAN_POINT('POS165',(2.22738461538462E-001,0.0E+000,
   4.09150402860932E-017));
#29=DIRECTION('DIR259',(1.0E+000,-2.18952885050753E-047,
   1.83690953073357E-016));
#30=DIRECTION('DIR260',(-1.83690953073357E-016,-6.0462265083164E-016,
   1.0E+000));
#31=AXIS2_PLACEMENT_3D('AXIS95',#28,#29,#30);
#32=CIRCLE('ELLIPSE49',#31,2.0955E+000);
#33=EDGE_CURVE('EDGE164',#4,#21,#32,.T.);
#34=ORIENTED_EDGE('COEDGE324',*,*,#33,.F.);
#35=EDGE_LOOP('NONE',(#10,#19,#27,#34));
#36=FACE_BOUND('LOOP1',#35,.T.);
#37=CARTESIAN_POINT('POS166',(1.11369230769231E-001,0.0E+000,
   2.04575201430466E-017));
#38=DIRECTION('DIR261',(1.0E+000,-2.18952885050753E-047,
   1.83690953073357E-016));
#39=DIRECTION('DIR262',(-1.83690953073357E-016,-6.0462265083164E-016,
   1.0E+000));
#40=AXIS2_PLACEMENT_3D('AXIS96',#37,#38,#39);
#41=CYLINDRICAL_SURFACE('CONE_SURF23',#40,2.0955E+000);
#42=ADVANCED_FACE('FACE80',(#36),#41,.T.);
#43=ORIENTED_EDGE('COEDGE325',*,*,#9,.T.);
#44=EDGE_CURVE('EDGE165',#21,#4,#32,.T.);
#45=ORIENTED_EDGE('COEDGE326',*,*,#44,.F.);
#46=ORIENTED_EDGE('COEDGE327',*,*,#26,.T.);
#47=EDGE_CURVE('EDGE166',#12,#2,#17,.T.);
#48=ORIENTED_EDGE('COEDGE328',*,*,#47,.T.);
#49=EDGE_LOOP('NONE',(#43,#45,#46,#48));
#50=FACE_BOUND('LOOP1',#49,.T.);
#51=ADVANCED_FACE('FACE81',(#50),#41,.T.);
#52=CARTESIAN_POINT('POINT106',(8.70940038838475E-017,0.0E+000,
   -1.4224E+000));
#53=VERTEX_POINT('VERTEX106',#52);
#54=CARTESIAN_POINT('POINT107',(-4.27815465345316E-016,
   -1.73981408348482E-016,1.4224E+000));
#55=VERTEX_POINT('VERTEX107',#54);
#56=CARTESIAN_POINT('POS167',(-1.76247905159244E-016,
   -1.95674482349743E-032,-9.78372411748716E-033));
#57=DIRECTION('DIR263',(1.0E+000,0.0E+000,6.12303176911189E-017));
#58=DIRECTION('DIR264',(6.12303176911189E-017,0.0E+000,-1.0E+000));
#59=AXIS2_PLACEMENT_3D('AXIS97',#56,#57,#58);
#60=CIRCLE('ELLIPSE50',#59,1.4224E+000);
#61=EDGE_CURVE('EDGE167',#53,#55,#60,.T.);
#62=ORIENTED_EDGE('COEDGE329',*,*,#61,.T.);
#63=EDGE_CURVE('EDGE168',#55,#53,#60,.T.);
#64=ORIENTED_EDGE('COEDGE330',*,*,#63,.T.);
#65=EDGE_LOOP('NONE',(#62,#64));
#66=FACE_BOUND('LOOP1',#65,.T.);
#67=ORIENTED_EDGE('COEDGE331',*,*,#18,.F.);
#68=ORIENTED_EDGE('COEDGE332',*,*,#47,.F.);
#69=EDGE_LOOP('NONE',(#67,#68));
#70=FACE_BOUND('LOOP1',#69,.T.);
#71=CARTESIAN_POINT('POS168',(-1.92462196082609E-016,0.0E+000,
   1.04775E+000));
#72=DIRECTION('DIR265',(-1.0E+000,0.0E+000,-1.83690953073357E-016));
#73=DIRECTION('DIR266',(0.0E+000,1.0E+000,0.0E+000));
#74=AXIS2_PLACEMENT_3D('AXIS98',#71,#72,#73);
#75=PLANE('PLANE24',#74);
#76=ADVANCED_FACE('FACE82',(#66,#70),#75,.T.);
#77=CARTESIAN_POINT('POINT108',(4.826E-001,-9.93530994984653E-016,
   2.060575E+000));
#78=VERTEX_POINT('VERTEX108',#77);
#79=CARTESIAN_POINT('POS169',(5.9396923076923E-001,
   -9.86314062817694E-016,2.04560714285714E+000));
#80=DIRECTION('DIR267',(9.91089060446397E-001,6.42244044540233E-017,
   -1.33200879364506E-001));
#81=VECTOR('VEC71',#80,1.0E+000);
#82=LINE('STRAIGHT71',#79,#81);
#83=EDGE_CURVE('EDGE169',#4,#78,#82,.T.);
#84=ORIENTED_EDGE('COEDGE333',*,*,#83,.F.);
#85=ORIENTED_EDGE('COEDGE334',*,*,#33,.T.);
#86=CARTESIAN_POINT('POINT109',(4.826E-001,1.49820964249016E-015,
   -2.060575E+000));
#87=VERTEX_POINT('VERTEX109',#86);
#88=CARTESIAN_POINT('POS170',(5.93969230769231E-001,
   9.86314062817694E-016,-2.04560714285714E+000));
#89=DIRECTION('DIR268',(-9.91089060446397E-001,6.42244044540232E-017,
   -1.33200879364507E-001));
#90=VECTOR('VEC72',#89,1.0E+000);
#91=LINE('STRAIGHT72',#88,#90);
#92=EDGE_CURVE('EDGE170',#87,#21,#91,.T.);
#93=ORIENTED_EDGE('COEDGE335',*,*,#92,.F.);
#94=CARTESIAN_POINT('POS171',(4.826E-001,0.0E+000,8.86492539532019E-017)
   );
#95=DIRECTION('DIR269',(1.0E+000,-1.98298790448598E-033,
   1.83690953073357E-016));
#96=DIRECTION('DIR270',(-1.83690953073357E-016,-6.04622650831641E-016,
   1.0E+000));
#97=AXIS2_PLACEMENT_3D('AXIS99',#94,#95,#96);
#98=CIRCLE('ELLIPSE51',#97,2.060575E+000);
#99=EDGE_CURVE('EDGE171',#78,#87,#98,.T.);
#100=ORIENTED_EDGE('COEDGE336',*,*,#99,.F.);
#101=EDGE_LOOP('NONE',(#84,#85,#93,#100));
#102=FACE_BOUND('LOOP1',#101,.T.);
#103=CARTESIAN_POINT('POS172',(5.93969230769231E-001,0.0E+000,
   1.09106774096248E-016));
#104=DIRECTION('DIR271',(-1.0E+000,2.18952885050753E-047,
   -1.83690953073357E-016));
#105=DIRECTION('DIR272',(-1.83690953073357E-016,-6.04622650831641E-016,
   1.0E+000));
#106=AXIS2_PLACEMENT_3D('AXIS100',#103,#104,#105);
#107=CONICAL_SURFACE('CONE_SURF24',#106,2.04560714285714E+000,
   1.33597943339093E-001);
#108=ADVANCED_FACE('FACE83',(#102),#107,.T.);
#109=ORIENTED_EDGE('COEDGE337',*,*,#83,.T.);
#110=EDGE_CURVE('EDGE172',#87,#78,#98,.T.);
#111=ORIENTED_EDGE('COEDGE338',*,*,#110,.F.);
#112=ORIENTED_EDGE('COEDGE339',*,*,#92,.T.);
#113=ORIENTED_EDGE('COEDGE340',*,*,#44,.T.);
#114=EDGE_LOOP('NONE',(#109,#111,#112,#113));
#115=FACE_BOUND('LOOP1',#114,.T.);
#116=ADVANCED_FACE('FACE84',(#115),#107,.T.);
#117=CARTESIAN_POINT('POINT110',(3.4417E-001,6.32209153192571E-017,
   1.07823E+000));
#118=VERTEX_POINT('VERTEX110',#117);
#119=CARTESIAN_POINT('POS173',(1.72085E-001,-1.31859126309427E-016,
   1.250315E+000));
#120=DIRECTION('DIR273',(-7.07106781186548E-001,-1.73082786232782E-016,
   7.07106781186548E-001));
#121=VECTOR('VEC73',#120,1.0E+000);
#122=LINE('STRAIGHT73',#119,#121);
#123=EDGE_CURVE('EDGE173',#118,#55,#122,.T.);
#124=ORIENTED_EDGE('COEDGE341',*,*,#123,.T.);
#125=ORIENTED_EDGE('COEDGE342',*,*,#61,.F.);
#126=CARTESIAN_POINT('POINT111',(3.4417E-001,1.74031398029381E-016,
   -1.07823E+000));
#127=VERTEX_POINT('VERTEX111',#126);
#128=CARTESIAN_POINT('POS174',(1.72085E-001,1.74006403188931E-016,
   -1.250315E+000));
#129=DIRECTION('DIR274',(7.07106781186547E-001,1.02705181604842E-019,
   7.07106781186548E-001));
#130=VECTOR('VEC74',#129,1.0E+000);
#131=LINE('STRAIGHT74',#128,#130);
#132=EDGE_CURVE('EDGE174',#53,#127,#131,.T.);
#133=ORIENTED_EDGE('COEDGE343',*,*,#132,.T.);
#134=CARTESIAN_POINT('POS175',(3.4417E-001,4.21472768795047E-017,
   2.10736384397524E-017));
#135=DIRECTION('DIR275',(-1.0E+000,-1.22460635382238E-016,
   -6.12303176911189E-017));
#136=DIRECTION('DIR276',(-6.12303176911189E-017,1.45247060751576E-019,
   1.0E+000));
#137=AXIS2_PLACEMENT_3D('AXIS101',#134,#135,#136);
#138=CIRCLE('ELLIPSE52',#137,1.07823E+000);
#139=EDGE_CURVE('EDGE175',#118,#127,#138,.T.);
#140=ORIENTED_EDGE('COEDGE344',*,*,#139,.F.);
#141=EDGE_LOOP('NONE',(#124,#125,#133,#140));
#142=FACE_BOUND('LOOP1',#141,.T.);
#143=CARTESIAN_POINT('POS176',(1.72085E-001,2.10736384397524E-017,
   1.05368192198762E-017));
#144=DIRECTION('DIR277',(-1.0E+000,-1.22460635382238E-016,
   -6.12303176911189E-017));
#145=DIRECTION('DIR278',(-6.12303176911189E-017,1.45247060751576E-019,
   1.0E+000));
#146=AXIS2_PLACEMENT_3D('AXIS102',#143,#144,#145);
#147=CONICAL_SURFACE('CONE_SURF25',#146,1.250315E+000,
   7.85398163397448E-001);
#148=ADVANCED_FACE('FACE85',(#142),#147,.F.);
#149=ORIENTED_EDGE('COEDGE345',*,*,#123,.F.);
#150=EDGE_CURVE('EDGE176',#127,#118,#138,.T.);
#151=ORIENTED_EDGE('COEDGE346',*,*,#150,.F.);
#152=ORIENTED_EDGE('COEDGE347',*,*,#132,.F.);
#153=ORIENTED_EDGE('COEDGE348',*,*,#63,.F.);
#154=EDGE_LOOP('NONE',(#149,#151,#152,#153));
#155=FACE_BOUND('LOOP1',#154,.T.);
#156=ADVANCED_FACE('FACE86',(#155),#147,.F.);
#157=ORIENTED_EDGE('COEDGE349',*,*,#110,.T.);
#158=ORIENTED_EDGE('COEDGE350',*,*,#99,.T.);
#159=EDGE_LOOP('NONE',(#157,#158));
#160=FACE_BOUND('LOOP1',#159,.T.);
#161=CARTESIAN_POINT('POINT112',(4.826E-001,0.0E+000,2.63525E+000));
#162=VERTEX_POINT('VERTEX112',#161);
#163=CARTESIAN_POINT('POINT113',(4.826E-001,3.22714389391042E-016,
   -2.63525E+000));
#164=VERTEX_POINT('VERTEX113',#163);
#165=CARTESIAN_POINT('POS177',(4.826E-001,0.0E+000,
   -8.70664651486663E-017));
#166=DIRECTION('DIR279',(-1.0E+000,0.0E+000,-1.80411241501588E-016));
#167=DIRECTION('DIR280',(-1.80411241501588E-016,0.0E+000,1.0E+000));
#168=AXIS2_PLACEMENT_3D('AXIS103',#165,#166,#167);
#169=CIRCLE('ELLIPSE53',#168,2.63525E+000);
#170=EDGE_CURVE('EDGE177',#162,#164,#169,.T.);
#171=ORIENTED_EDGE('COEDGE351',*,*,#170,.T.);
#172=EDGE_CURVE('EDGE178',#164,#162,#169,.T.);
#173=ORIENTED_EDGE('COEDGE352',*,*,#172,.T.);
#174=EDGE_LOOP('NONE',(#171,#173));
#175=FACE_BOUND('LOOP1',#174,.T.);
#176=CARTESIAN_POINT('POS178',(4.826E-001,0.0E+000,
   -8.70664651486663E-017));
#177=DIRECTION('DIR281',(-1.0E+000,0.0E+000,-1.80411241501588E-016));
#178=DIRECTION('DIR282',(0.0E+000,1.0E+000,0.0E+000));
#179=AXIS2_PLACEMENT_3D('AXIS104',#176,#177,#178);
#180=PLANE('PLANE25',#179);
#181=ADVANCED_FACE('FACE87',(#160,#175),#180,.T.);
#182=CARTESIAN_POINT('POINT114',(2.39903E+000,4.40680107151575E-016,
   1.07823E+000));
#183=VERTEX_POINT('VERTEX114',#182);
#184=CARTESIAN_POINT('POS179',(1.3716E+000,3.60828863404012E-017,
   1.07823E+000));
#185=DIRECTION('DIR283',(-1.0E+000,-1.22460635382238E-016,
   -6.12303176911189E-017));
#186=VECTOR('VEC75',#185,1.0E+000);
#187=LINE('STRAIGHT75',#184,#186);
#188=EDGE_CURVE('EDGE179',#183,#118,#187,.T.);
#189=ORIENTED_EDGE('COEDGE353',*,*,#188,.T.);
#190=ORIENTED_EDGE('COEDGE354',*,*,#139,.T.);
#191=CARTESIAN_POINT('POINT115',(2.39903E+000,4.25670859250926E-016,
   -1.07823E+000));
#192=VERTEX_POINT('VERTEX115',#191);
#193=CARTESIAN_POINT('POS180',(1.3716E+000,2.99851128640153E-016,
   -1.07823E+000));
#194=DIRECTION('DIR284',(1.0E+000,1.22460635382238E-016,
   6.12303176911189E-017));
#195=VECTOR('VEC76',#194,1.0E+000);
#196=LINE('STRAIGHT76',#193,#195);
#197=EDGE_CURVE('EDGE180',#127,#192,#196,.T.);
#198=ORIENTED_EDGE('COEDGE355',*,*,#197,.T.);
#199=CARTESIAN_POINT('POS181',(2.39903E+000,2.9378673810105E-016,
   1.46893369050525E-016));
#200=DIRECTION('DIR285',(-1.0E+000,-1.22460635382238E-016,
   -6.12303176911189E-017));
#201=DIRECTION('DIR286',(-6.12303176911189E-017,1.45247060751576E-019,
   1.0E+000));
#202=AXIS2_PLACEMENT_3D('AXIS105',#199,#200,#201);
#203=CIRCLE('ELLIPSE54',#202,1.07823E+000);
#204=EDGE_CURVE('EDGE181',#183,#192,#203,.T.);
#205=ORIENTED_EDGE('COEDGE356',*,*,#204,.F.);
#206=EDGE_LOOP('NONE',(#189,#190,#198,#205));
#207=FACE_BOUND('LOOP1',#206,.T.);
#208=CARTESIAN_POINT('POS182',(1.3716E+000,1.67967007490277E-016,
   8.39835037451386E-017));
#209=DIRECTION('DIR287',(-1.0E+000,-1.22460635382238E-016,
   -6.12303176911189E-017));
#210=DIRECTION('DIR288',(-6.12303176911189E-017,1.45247060751576E-019,
   1.0E+000));
#211=AXIS2_PLACEMENT_3D('AXIS106',#208,#209,#210);
#212=CYLINDRICAL_SURFACE('CONE_SURF26',#211,1.07823E+000);
#213=ADVANCED_FACE('FACE88',(#207),#212,.F.);
#214=ORIENTED_EDGE('COEDGE357',*,*,#188,.F.);
#215=EDGE_CURVE('EDGE182',#192,#183,#203,.T.);
#216=ORIENTED_EDGE('COEDGE358',*,*,#215,.F.);
#217=ORIENTED_EDGE('COEDGE359',*,*,#197,.F.);
#218=ORIENTED_EDGE('COEDGE360',*,*,#150,.T.);
#219=EDGE_LOOP('NONE',(#214,#216,#217,#218));
#220=FACE_BOUND('LOOP1',#219,.T.);
#221=ADVANCED_FACE('FACE89',(#220),#212,.F.);
#222=CARTESIAN_POINT('POINT116',(9.65199999999999E-001,0.0E+000,
   2.63525E+000));
#223=VERTEX_POINT('VERTEX116',#222);
#224=CARTESIAN_POINT('POS183',(7.23899999999999E-001,
   -3.22714389391042E-016,2.63525E+000));
#225=DIRECTION('DIR289',(-1.0E+000,0.0E+000,-1.80411241501588E-016));
#226=VECTOR('VEC77',#225,1.0E+000);
#227=LINE('STRAIGHT77',#224,#226);
#228=EDGE_CURVE('EDGE183',#223,#162,#227,.T.);
#229=ORIENTED_EDGE('COEDGE361',*,*,#228,.F.);
#230=CARTESIAN_POINT('POINT117',(9.652E-001,3.22714389391042E-016,
   -2.63525E+000));
#231=VERTEX_POINT('VERTEX117',#230);
#232=CARTESIAN_POINT('POS184',(9.652E-001,0.0E+000,
   -9.78372411748716E-033));
#233=DIRECTION('DIR290',(1.0E+000,0.0E+000,1.80411241501588E-016));
#234=DIRECTION('DIR291',(-1.80411241501588E-016,0.0E+000,1.0E+000));
#235=AXIS2_PLACEMENT_3D('AXIS107',#232,#233,#234);
#236=CIRCLE('ELLIPSE55',#235,2.63525E+000);
#237=EDGE_CURVE('EDGE184',#231,#223,#236,.T.);
#238=ORIENTED_EDGE('COEDGE362',*,*,#237,.F.);
#239=CARTESIAN_POINT('POS185',(7.239E-001,3.22714389391042E-016,
   -2.63525E+000));
#240=DIRECTION('DIR292',(1.0E+000,-0.0E+000,1.80411241501588E-016));
#241=VECTOR('VEC78',#240,1.0E+000);
#242=LINE('STRAIGHT78',#239,#241);
#243=EDGE_CURVE('EDGE185',#164,#231,#242,.T.);
#244=ORIENTED_EDGE('COEDGE363',*,*,#243,.F.);
#245=ORIENTED_EDGE('COEDGE364',*,*,#170,.F.);
#246=EDGE_LOOP('NONE',(#229,#238,#244,#245));
#247=FACE_BOUND('LOOP1',#246,.T.);
#248=CARTESIAN_POINT('POS186',(7.239E-001,0.0E+000,
   -4.35332325743332E-017));
#249=DIRECTION('DIR293',(-1.0E+000,0.0E+000,-1.80411241501588E-016));
#250=DIRECTION('DIR294',(-1.80411241501588E-016,0.0E+000,1.0E+000));
#251=AXIS2_PLACEMENT_3D('AXIS108',#248,#249,#250);
#252=CYLINDRICAL_SURFACE('CONE_SURF27',#251,2.63525E+000);
#253=ADVANCED_FACE('FACE90',(#247),#252,.T.);
#254=ORIENTED_EDGE('COEDGE365',*,*,#228,.T.);
#255=ORIENTED_EDGE('COEDGE366',*,*,#172,.F.);
#256=ORIENTED_EDGE('COEDGE367',*,*,#243,.T.);
#257=EDGE_CURVE('EDGE186',#223,#231,#236,.T.);
#258=ORIENTED_EDGE('COEDGE368',*,*,#257,.F.);
#259=EDGE_LOOP('NONE',(#254,#255,#256,#258));
#260=FACE_BOUND('LOOP1',#259,.T.);
#261=ADVANCED_FACE('FACE91',(#260),#252,.T.);
#262=CARTESIAN_POINT('POINT118',(2.7432E+000,1.61952606632073E-016,
   1.4224E+000));
#263=VERTEX_POINT('VERTEX118',#262);
#264=CARTESIAN_POINT('POS187',(2.571115E+000,1.61927611791623E-016,
   1.250315E+000));
#265=DIRECTION('DIR295',(-7.07106781186548E-001,-1.02705181604902E-019,
   -7.07106781186547E-001));
#266=VECTOR('VEC79',#265,1.0E+000);
#267=LINE('STRAIGHT79',#264,#266);
#268=EDGE_CURVE('EDGE187',#263,#183,#267,.T.);
#269=ORIENTED_EDGE('COEDGE369',*,*,#268,.T.);
#270=ORIENTED_EDGE('COEDGE370',*,*,#204,.T.);
#271=CARTESIAN_POINT('POINT119',(2.7432E+000,5.03901022470832E-016,
   -1.4224E+000));
#272=VERTEX_POINT('VERTEX119',#271);
#273=CARTESIAN_POINT('POS188',(2.571115E+000,4.67793141289981E-016,
   -1.250315E+000));
#274=DIRECTION('DIR296',(7.07106781186548E-001,1.73082786232782E-016,
   -7.07106781186547E-001));
#275=VECTOR('VEC80',#274,1.0E+000);
#276=LINE('STRAIGHT80',#273,#275);
#277=EDGE_CURVE('EDGE188',#192,#272,#276,.T.);
#278=ORIENTED_EDGE('COEDGE371',*,*,#277,.T.);
#279=CARTESIAN_POINT('POS189',(2.7432E+000,3.35934014980555E-016,
   1.67967007490277E-016));
#280=DIRECTION('DIR297',(-1.0E+000,0.0E+000,-6.12303176911189E-017));
#281=DIRECTION('DIR298',(6.12303176911189E-017,0.0E+000,-1.0E+000));
#282=AXIS2_PLACEMENT_3D('AXIS109',#279,#280,#281);
#283=CIRCLE('ELLIPSE56',#282,1.4224E+000);
#284=EDGE_CURVE('EDGE189',#263,#272,#283,.T.);
#285=ORIENTED_EDGE('COEDGE372',*,*,#284,.F.);
#286=EDGE_LOOP('NONE',(#269,#270,#278,#285));
#287=FACE_BOUND('LOOP1',#286,.T.);
#288=CARTESIAN_POINT('POS190',(2.571115E+000,3.14860376540802E-016,
   1.57430188270401E-016));
#289=DIRECTION('DIR299',(1.0E+000,1.22460635382238E-016,
   6.12303176911189E-017));
#290=DIRECTION('DIR300',(-6.12303176911189E-017,1.45247060751576E-019,
   1.0E+000));
#291=AXIS2_PLACEMENT_3D('AXIS110',#288,#289,#290);
#292=CONICAL_SURFACE('CONE_SURF28',#291,1.250315E+000,
   7.85398163397448E-001);
#293=ADVANCED_FACE('FACE92',(#287),#292,.F.);
#294=ORIENTED_EDGE('COEDGE373',*,*,#268,.F.);
#295=EDGE_CURVE('EDGE190',#272,#263,#283,.T.);
#296=ORIENTED_EDGE('COEDGE374',*,*,#295,.F.);
#297=ORIENTED_EDGE('COEDGE375',*,*,#277,.F.);
#298=ORIENTED_EDGE('COEDGE376',*,*,#215,.T.);
#299=EDGE_LOOP('NONE',(#294,#296,#297,#298));
#300=FACE_BOUND('LOOP1',#299,.T.);
#301=ADVANCED_FACE('FACE93',(#300),#292,.F.);
#302=ORIENTED_EDGE('COEDGE377',*,*,#257,.T.);
#303=ORIENTED_EDGE('COEDGE378',*,*,#237,.T.);
#304=EDGE_LOOP('NONE',(#302,#303));
#305=FACE_BOUND('LOOP1',#304,.T.);
#306=CARTESIAN_POINT('POINT120',(9.65199999999999E-001,
   -5.90995026354679E-017,3.175E+000));
#307=VERTEX_POINT('VERTEX120',#306);
#308=CARTESIAN_POINT('POINT121',(9.65200000000001E-001,
   3.3936557102242E-015,-3.175E+000));
#309=VERTEX_POINT('VERTEX121',#308);
#310=CARTESIAN_POINT('POS191',(9.652E-001,0.0E+000,1.77298507906404E-016
   ));
#311=DIRECTION('DIR301',(1.0E+000,0.0E+000,1.83690953073357E-016));
#312=DIRECTION('DIR302',(-1.83690953073357E-016,-1.19132857561033E-015,
   1.0E+000));
#313=AXIS2_PLACEMENT_3D('AXIS111',#310,#311,#312);
#314=CIRCLE('ELLIPSE57',#313,3.175E+000);
#315=EDGE_CURVE('EDGE191',#307,#309,#314,.T.);
#316=ORIENTED_EDGE('COEDGE379',*,*,#315,.F.);
#317=EDGE_CURVE('EDGE192',#309,#307,#314,.T.);
#318=ORIENTED_EDGE('COEDGE380',*,*,#317,.F.);
#319=EDGE_LOOP('NONE',(#316,#318));
#320=FACE_BOUND('LOOP1',#319,.T.);
#321=CARTESIAN_POINT('POS192',(9.652E-001,-5.90995026354679E-017,
   1.5875E+000));
#322=DIRECTION('DIR303',(-1.0E+000,0.0E+000,-1.83690953073357E-016));
#323=DIRECTION('DIR304',(0.0E+000,1.0E+000,0.0E+000));
#324=AXIS2_PLACEMENT_3D('AXIS112',#321,#322,#323);
#325=PLANE('PLANE26',#324);
#326=ADVANCED_FACE('FACE94',(#305,#320),#325,.T.);
#327=CARTESIAN_POINT('POINT122',(2.44686666666667E+000,
   -1.49822423347809E-016,3.175E+000));
#328=VERTEX_POINT('VERTEX122',#327);
#329=CARTESIAN_POINT('POS193',(1.70603333333333E+000,
   -3.3936557102242E-015,3.175E+000));
#330=DIRECTION('DIR305',(1.0E+000,0.0E+000,1.83690953073357E-016));
#331=VECTOR('VEC81',#330,1.0E+000);
#332=LINE('STRAIGHT81',#329,#331);
#333=EDGE_CURVE('EDGE193',#307,#328,#332,.T.);
#334=ORIENTED_EDGE('COEDGE381',*,*,#333,.T.);
#335=CARTESIAN_POINT('POINT123',(2.44686666666667E+000,
   3.3936557102242E-015,-3.175E+000));
#336=VERTEX_POINT('VERTEX123',#335);
#337=CARTESIAN_POINT('POS194',(2.44686666666667E+000,0.0E+000,
   4.49467270043427E-016));
#338=DIRECTION('DIR306',(1.0E+000,0.0E+000,1.83690953073357E-016));
#339=DIRECTION('DIR307',(-1.83690953073357E-016,-1.19132857561033E-015,
   1.0E+000));
#340=AXIS2_PLACEMENT_3D('AXIS113',#337,#338,#339);
#341=CIRCLE('ELLIPSE58',#340,3.175E+000);
#342=EDGE_CURVE('EDGE194',#336,#328,#341,.T.);
#343=ORIENTED_EDGE('COEDGE382',*,*,#342,.F.);
#344=CARTESIAN_POINT('POS195',(1.70603333333333E+000,
   3.3936557102242E-015,-3.175E+000));
#345=DIRECTION('DIR308',(-1.0E+000,-0.0E+000,-1.83690953073357E-016));
#346=VECTOR('VEC82',#345,1.0E+000);
#347=LINE('STRAIGHT82',#344,#346);
#348=EDGE_CURVE('EDGE195',#336,#309,#347,.T.);
#349=ORIENTED_EDGE('COEDGE383',*,*,#348,.T.);
#350=ORIENTED_EDGE('COEDGE384',*,*,#317,.T.);
#351=EDGE_LOOP('NONE',(#334,#343,#349,#350));
#352=FACE_BOUND('LOOP1',#351,.T.);
#353=CARTESIAN_POINT('POS196',(1.70603333333333E+000,0.0E+000,
   3.13382888974915E-016));
#354=DIRECTION('DIR309',(1.0E+000,0.0E+000,1.83690953073357E-016));
#355=DIRECTION('DIR310',(-1.83690953073357E-016,-1.19132857561033E-015,
   1.0E+000));
#356=AXIS2_PLACEMENT_3D('AXIS114',#353,#354,#355);
#357=CYLINDRICAL_SURFACE('CONE_SURF29',#356,3.175E+000);
#358=ADVANCED_FACE('FACE95',(#352),#357,.T.);
#359=ORIENTED_EDGE('COEDGE385',*,*,#295,.T.);
#360=ORIENTED_EDGE('COEDGE386',*,*,#284,.T.);
#361=EDGE_LOOP('NONE',(#359,#360));
#362=FACE_BOUND('LOOP1',#361,.T.);
#363=CARTESIAN_POINT('POINT124',(2.7432E+000,-1.67967007490277E-016,
   2.87866666666667E+000));
#364=VERTEX_POINT('VERTEX124',#363);
#365=CARTESIAN_POINT('POINT125',(2.7432E+000,3.07691451060328E-015,
   -2.87866666666667E+000));
#366=VERTEX_POINT('VERTEX125',#365);
#367=CARTESIAN_POINT('POS197',(2.7432E+000,0.0E+000,
   5.03901022470832E-016));
#368=DIRECTION('DIR311',(1.0E+000,0.0E+000,1.83690953073357E-016));
#369=DIRECTION('DIR312',(-1.83690953073357E-016,-1.19132857561033E-015,
   1.0E+000));
#370=AXIS2_PLACEMENT_3D('AXIS115',#367,#368,#369);
#371=CIRCLE('ELLIPSE59',#370,2.87866666666667E+000);
#372=EDGE_CURVE('EDGE196',#364,#366,#371,.T.);
#373=ORIENTED_EDGE('COEDGE387',*,*,#372,.T.);
#374=EDGE_CURVE('EDGE197',#366,#364,#371,.T.);
#375=ORIENTED_EDGE('COEDGE388',*,*,#374,.T.);
#376=EDGE_LOOP('NONE',(#373,#375));
#377=FACE_BOUND('LOOP1',#376,.T.);
#378=CARTESIAN_POINT('POS198',(2.7432E+000,-1.67967007490277E-016,
   1.43933333333333E+000));
#379=DIRECTION('DIR313',(1.0E+000,0.0E+000,1.83690953073357E-016));
#380=DIRECTION('DIR314',(0.0E+000,1.0E+000,0.0E+000));
#381=AXIS2_PLACEMENT_3D('AXIS116',#378,#379,#380);
#382=PLANE('PLANE27',#381);
#383=ADVANCED_FACE('FACE96',(#362,#377),#382,.T.);
#384=ORIENTED_EDGE('COEDGE389',*,*,#333,.F.);
#385=ORIENTED_EDGE('COEDGE390',*,*,#315,.T.);
#386=ORIENTED_EDGE('COEDGE391',*,*,#348,.F.);
#387=EDGE_CURVE('EDGE198',#328,#336,#341,.T.);
#388=ORIENTED_EDGE('COEDGE392',*,*,#387,.F.);
#389=EDGE_LOOP('NONE',(#384,#385,#386,#388));
#390=FACE_BOUND('LOOP1',#389,.T.);
#391=ADVANCED_FACE('FACE97',(#390),#357,.T.);
#392=CARTESIAN_POINT('POS199',(2.59503333333333E+000,
   -3.23528511041374E-015,3.02683333333333E+000));
#393=DIRECTION('DIR315',(7.07106781186548E-001,7.55803768728184E-016,
   -7.07106781186547E-001));
#394=VECTOR('VEC83',#393,1.0E+000);
#395=LINE('STRAIGHT83',#392,#394);
#396=EDGE_CURVE('EDGE199',#328,#364,#395,.T.);
#397=ORIENTED_EDGE('COEDGE393',*,*,#396,.T.);
#398=ORIENTED_EDGE('COEDGE394',*,*,#374,.F.);
#399=CARTESIAN_POINT('POS200',(2.59503333333333E+000,
   3.23528511041374E-015,-3.02683333333333E+000));
#400=DIRECTION('DIR316',(-7.07106781186547E-001,7.55803768728184E-016,
   -7.07106781186548E-001));
#401=VECTOR('VEC84',#400,1.0E+000);
#402=LINE('STRAIGHT84',#399,#401);
#403=EDGE_CURVE('EDGE200',#366,#336,#402,.T.);
#404=ORIENTED_EDGE('COEDGE395',*,*,#403,.T.);
#405=ORIENTED_EDGE('COEDGE396',*,*,#342,.T.);
#406=EDGE_LOOP('NONE',(#397,#398,#404,#405));
#407=FACE_BOUND('LOOP1',#406,.T.);
#408=CARTESIAN_POINT('POS201',(2.59503333333333E+000,0.0E+000,
   4.7668414625713E-016));
#409=DIRECTION('DIR317',(-1.0E+000,4.37905770101505E-047,
   -1.83690953073357E-016));
#410=DIRECTION('DIR318',(-1.83690953073357E-016,-1.19132857561033E-015,
   1.0E+000));
#411=AXIS2_PLACEMENT_3D('AXIS117',#408,#409,#410);
#412=CONICAL_SURFACE('CONE_SURF30',#411,3.02683333333333E+000,
   7.85398163397448E-001);
#413=ADVANCED_FACE('FACE98',(#407),#412,.T.);
#414=ORIENTED_EDGE('COEDGE397',*,*,#396,.F.);
#415=ORIENTED_EDGE('COEDGE398',*,*,#387,.T.);
#416=ORIENTED_EDGE('COEDGE399',*,*,#403,.F.);
#417=ORIENTED_EDGE('COEDGE400',*,*,#372,.F.);
#418=EDGE_LOOP('NONE',(#414,#415,#416,#417));
#419=FACE_BOUND('LOOP1',#418,.T.);
#420=ADVANCED_FACE('FACE99',(#419),#412,.T.);
#421=CLOSED_SHELL('SHELL4',(#42,#51,#76,#108,#116,#148,#156,#181,#213,
   #221,#253,#261,#293,#301,#326,#358,#383,#391,#413,#420));
#422=MANIFOLD_SOLID_BREP('LUMP4',#421);
#423=ADVANCED_BREP_SHAPE_REPRESENTATION('BODY3',(#422),#424);
#424=(GEOMETRIC_REPRESENTATION_CONTEXT(3) 
   GLOBAL_UNCERTAINTY_ASSIGNED_CONTEXT((#425)) 
   GLOBAL_UNIT_ASSIGNED_CONTEXT((#426,#427,#428)) REPRESENTATION_CONTEXT
   ('',''));
#425=UNCERTAINTY_MEASURE_WITH_UNIT(LENGTH_MEASURE(1.0E-006),#426,'','');
#426=(LENGTH_UNIT() NAMED_UNIT(*) SI_UNIT(.MILLI.,.METRE.));
#427=(NAMED_UNIT(*) PLANE_ANGLE_UNIT() SI_UNIT($,.RADIAN.));
#428=(NAMED_UNIT(*) SI_UNIT($,.STERADIAN.) SOLID_ANGLE_UNIT());
#429=APPLICATION_CONTEXT(
   'CONFIGURATION CONTROLLED 3D DESIGNS OF MECHANICAL PARTS AND 
ASSEMBLIES');
#430=APPLICATION_PROTOCOL_DEFINITION('INTERNATIONAL STANDARD',
   'config_control_design',1994,#429);
#431=MECHANICAL_CONTEXT('MECHANICAL_CONTEXT_NAME',#429,'mechanical');
#432=PRODUCT('PRODUCT_ID_4','PRODUCT_NAME_4','PRODUCT_DESCRIPTION',(#431
   ));
#433=PRODUCT_RELATED_PRODUCT_CATEGORY('detail',
   'PRODUCT_RELATED_PRODUCT_CATEGORY_DESCRIPTION',(#432));
#434=PERSON_AND_ORGANIZATION_ROLE('design_owner');
#435=CC_DESIGN_PERSON_AND_ORGANIZATION_ASSIGNMENT(#438,#434,(#432));
#436=PERSON('ID_25','PERSON_LAST_NAME','PERSON_FIRST_NAME',$,$,$);
#437=ORGANIZATION('ORGANIZATION_ID','ORGANIZATION_NAME',
   'ORGANIZATION_DESCRIPTION');
#438=PERSON_AND_ORGANIZATION(#436,#437);
#439=PRODUCT_DEFINITION_FORMATION_WITH_SPECIFIED_SOURCE(
   'PRODUCT_DEFINITION_FORMATION_ID',
   'PRODUCT_DEFINITION_FORMATION_DESCRIPTION',#432,.NOT_KNOWN.);
#440=PERSON_AND_ORGANIZATION_ROLE('creator');
#441=CC_DESIGN_PERSON_AND_ORGANIZATION_ASSIGNMENT(#444,#440,(#439));
#442=PERSON('ID_26','PERSON_LAST_NAME','PERSON_FIRST_NAME',$,$,$);
#443=ORGANIZATION('ORGANIZATION_ID','ORGANIZATION_NAME',
   'ORGANIZATION_DESCRIPTION');
#444=PERSON_AND_ORGANIZATION(#442,#443);
#445=PERSON_AND_ORGANIZATION_ROLE('part_supplier');
#446=CC_DESIGN_PERSON_AND_ORGANIZATION_ASSIGNMENT(#449,#445,(#439));
#447=PERSON('ID_27','PERSON_LAST_NAME','PERSON_FIRST_NAME',$,$,$);
#448=ORGANIZATION('ORGANIZATION_ID','ORGANIZATION_NAME',
   'ORGANIZATION_DESCRIPTION');
#449=PERSON_AND_ORGANIZATION(#447,#448);
#450=APPROVAL_STATUS('approved');
#451=APPROVAL(#450,'APPROVAL_LEVEL');
#452=CC_DESIGN_APPROVAL(#451,(#439));
#453=APPROVAL_ROLE('APPROVAL_ROLE');
#454=APPROVAL_PERSON_ORGANIZATION(#457,#451,#453);
#455=PERSON('ID_28','PERSON_LAST_NAME','PERSON_FIRST_NAME',$,$,$);
#456=ORGANIZATION('ORGANIZATION_ID','ORGANIZATION_NAME',
   'ORGANIZATION_DESCRIPTION');
#457=PERSON_AND_ORGANIZATION(#455,#456);
#458=APPROVAL_DATE_TIME(#462,#451);
#459=CALENDAR_DATE(1997,1,1);
#460=COORDINATED_UNIVERSAL_TIME_OFFSET(0,0,.AHEAD.);
#461=LOCAL_TIME(0,0,0.0E+000,#460);
#462=DATE_AND_TIME(#459,#461);
#463=SECURITY_CLASSIFICATION_LEVEL('classified');
#464=SECURITY_CLASSIFICATION('SECURITY_CLASSIFICATION_NAME',
   'SECURITY_CLASSIFICATION_PURPOSE',#463);
#465=CC_DESIGN_SECURITY_CLASSIFICATION(#464,(#439));
#466=APPROVAL_STATUS('approved');
#467=APPROVAL(#466,'APPROVAL_LEVEL');
#468=CC_DESIGN_APPROVAL(#467,(#464));
#469=APPROVAL_ROLE('APPROVAL_ROLE');
#470=APPROVAL_PERSON_ORGANIZATION(#473,#467,#469);
#471=PERSON('ID_29','PERSON_LAST_NAME','PERSON_FIRST_NAME',$,$,$);
#472=ORGANIZATION('ORGANIZATION_ID','ORGANIZATION_NAME',
   'ORGANIZATION_DESCRIPTION');
#473=PERSON_AND_ORGANIZATION(#471,#472);
#474=APPROVAL_DATE_TIME(#478,#467);
#475=CALENDAR_DATE(1997,1,1);
#476=COORDINATED_UNIVERSAL_TIME_OFFSET(0,0,.AHEAD.);
#477=LOCAL_TIME(0,0,0.0E+000,#476);
#478=DATE_AND_TIME(#475,#477);
#479=PERSON_AND_ORGANIZATION_ROLE('classification_officer');
#480=CC_DESIGN_PERSON_AND_ORGANIZATION_ASSIGNMENT(#483,#479,(#464));
#481=PERSON('ID_30','PERSON_LAST_NAME','PERSON_FIRST_NAME',$,$,$);
#482=ORGANIZATION('ORGANIZATION_ID','ORGANIZATION_NAME',
   'ORGANIZATION_DESCRIPTION');
#483=PERSON_AND_ORGANIZATION(#481,#482);
#484=DATE_TIME_ROLE('classification_date');
#485=CC_DESIGN_DATE_AND_TIME_ASSIGNMENT(#489,#484,(#464));
#486=CALENDAR_DATE(1997,1,1);
#487=COORDINATED_UNIVERSAL_TIME_OFFSET(0,0,.AHEAD.);
#488=LOCAL_TIME(0,0,0.0E+000,#487);
#489=DATE_AND_TIME(#486,#488);
#490=DESIGN_CONTEXT('DESIGN_CONTEXT_NAME',#429,'design');
#491=PRODUCT_DEFINITION('PRODUCT_DEFINITION_ID',
   'PRODUCT_DEFINITION_DESCRIPTION',#439,#490);
#492=PERSON_AND_ORGANIZATION_ROLE('creator');
#493=CC_DESIGN_PERSON_AND_ORGANIZATION_ASSIGNMENT(#496,#492,(#491));
#494=PERSON('ID_31','PERSON_LAST_NAME','PERSON_FIRST_NAME',$,$,$);
#495=ORGANIZATION('ORGANIZATION_ID','ORGANIZATION_NAME',
   'ORGANIZATION_DESCRIPTION');
#496=PERSON_AND_ORGANIZATION(#494,#495);
#497=DATE_TIME_ROLE('creation_date');
#498=CC_DESIGN_DATE_AND_TIME_ASSIGNMENT(#502,#497,(#491));
#499=CALENDAR_DATE(1997,1,1);
#500=COORDINATED_UNIVERSAL_TIME_OFFSET(0,0,.AHEAD.);
#501=LOCAL_TIME(0,0,0.0E+000,#500);
#502=DATE_AND_TIME(#499,#501);
#503=APPROVAL_STATUS('approved');
#504=APPROVAL(#503,'APPROVAL_LEVEL');
#505=CC_DESIGN_APPROVAL(#504,(#491));
#506=APPROVAL_ROLE('APPROVAL_ROLE');
#507=APPROVAL_PERSON_ORGANIZATION(#510,#504,#506);
#508=PERSON('ID_32','PERSON_LAST_NAME','PERSON_FIRST_NAME',$,$,$);
#509=ORGANIZATION('ORGANIZATION_ID','ORGANIZATION_NAME',
   'ORGANIZATION_DESCRIPTION');
#510=PERSON_AND_ORGANIZATION(#508,#509);
#511=APPROVAL_DATE_TIME(#515,#504);
#512=CALENDAR_DATE(1997,1,1);
#513=COORDINATED_UNIVERSAL_TIME_OFFSET(0,0,.AHEAD.);
#514=LOCAL_TIME(0,0,0.0E+000,#513);
#515=DATE_AND_TIME(#512,#514);
#516=PRODUCT_DEFINITION_SHAPE('PRODUCT_DEFINITION_SHAPE_NAME',
   'PRODUCT_DEFINITION_SHAPE_DESCRIPTION',#491);
#517=SHAPE_DEFINITION_REPRESENTATION(#516,#423);
ENDSEC;
END-ISO-10303-21;
                
                  
               
                   
                    
     
                
