ISO-10303-21;
HEADER;
FILE_DESCRIPTION(('starvars output'),'2;1');
FILE_NAME('cv20120701153839000000937.stp','15:38:40   2012/07/01',(
   'Thomas Industrial Network Germany GmbH'),(
   'Thomas Industrial Network Germany GmbH'),'unknown preprocess','ACIS'
   ,'unknown authorization');
FILE_SCHEMA(('CONFIG_CONTROL_DESIGN {UNKNOWN IMPLEMENTATION LEVEL}'));
ENDSEC;
/* ISO 10303-21 file written by STEP Caselib, ProSTEP GmbH, Germany */
DATA;
#1=CARTESIAN_POINT('POINT201',(-4.36247644453915E-016,0.0E+000,
   2.3749E+000));
#2=VERTEX_POINT('VERTEX201',#1);
#3=CARTESIAN_POINT('POINT202',(1.75846153846153E-001,
   -1.07671158647614E-017,2.3749E+000));
#4=VERTEX_POINT('VERTEX202',#3);
#5=CARTESIAN_POINT('POS302',(8.79230769230765E-002,-7.0942094609733E-016
   ,2.3749E+000));
#6=DIRECTION('DIR479',(1.0E+000,0.0E+000,1.83690953073357E-016));
#7=VECTOR('VEC125',#6,1.0E+000);
#8=LINE('STRAIGHT125',#5,#7);
#9=EDGE_CURVE('EDGE303',#2,#4,#8,.T.);
#10=ORIENTED_EDGE('COEDGE605',*,*,#9,.F.);
#11=CARTESIAN_POINT('POINT203',(4.36247644453915E-016,
   7.0942094609733E-016,-2.3749E+000));
#12=VERTEX_POINT('VERTEX203',#11);
#13=CARTESIAN_POINT('POS303',(0.0E+000,0.0E+000,0.0E+000));
#14=DIRECTION('DIR480',(1.0E+000,0.0E+000,1.83690953073357E-016));
#15=DIRECTION('DIR481',(-1.83690953073357E-016,-4.21176769155167E-016,
   1.0E+000));
#16=AXIS2_PLACEMENT_3D('AXIS178',#13,#14,#15);
#17=CIRCLE('ELLIPSE86',#16,2.3749E+000);
#18=EDGE_CURVE('EDGE304',#2,#12,#17,.T.);
#19=ORIENTED_EDGE('COEDGE606',*,*,#18,.T.);
#20=CARTESIAN_POINT('POINT204',(1.75846153846154E-001,
   7.0942094609733E-016,-2.3749E+000));
#21=VERTEX_POINT('VERTEX204',#20);
#22=CARTESIAN_POINT('POS304',(8.79230769230773E-002,7.0942094609733E-016
   ,-2.3749E+000));
#23=DIRECTION('DIR482',(-1.0E+000,-0.0E+000,-1.83690953073357E-016));
#24=VECTOR('VEC126',#23,1.0E+000);
#25=LINE('STRAIGHT126',#22,#24);
#26=EDGE_CURVE('EDGE305',#21,#12,#25,.T.);
#27=ORIENTED_EDGE('COEDGE607',*,*,#26,.F.);
#28=CARTESIAN_POINT('POS305',(1.75846153846154E-001,0.0E+000,
   3.23013475942841E-017));
#29=DIRECTION('DIR483',(1.0E+000,0.0E+000,1.83690953073357E-016));
#30=DIRECTION('DIR484',(-1.83690953073357E-016,-4.21176769155167E-016,
   1.0E+000));
#31=AXIS2_PLACEMENT_3D('AXIS179',#28,#29,#30);
#32=CIRCLE('ELLIPSE87',#31,2.3749E+000);
#33=EDGE_CURVE('EDGE306',#4,#21,#32,.T.);
#34=ORIENTED_EDGE('COEDGE608',*,*,#33,.F.);
#35=EDGE_LOOP('NONE',(#10,#19,#27,#34));
#36=FACE_BOUND('LOOP1',#35,.T.);
#37=CARTESIAN_POINT('POS306',(8.79230769230769E-002,0.0E+000,
   1.6150673797142E-017));
#38=DIRECTION('DIR485',(1.0E+000,0.0E+000,1.83690953073357E-016));
#39=DIRECTION('DIR486',(-1.83690953073357E-016,-4.21176769155167E-016,
   1.0E+000));
#40=AXIS2_PLACEMENT_3D('AXIS180',#37,#38,#39);
#41=CYLINDRICAL_SURFACE('CONE_SURF44',#40,2.3749E+000);
#42=ADVANCED_FACE('FACE138',(#36),#41,.T.);
#43=ORIENTED_EDGE('COEDGE609',*,*,#9,.T.);
#44=EDGE_CURVE('EDGE307',#21,#4,#32,.T.);
#45=ORIENTED_EDGE('COEDGE610',*,*,#44,.F.);
#46=ORIENTED_EDGE('COEDGE611',*,*,#26,.T.);
#47=EDGE_CURVE('EDGE308',#12,#2,#17,.T.);
#48=ORIENTED_EDGE('COEDGE612',*,*,#47,.T.);
#49=EDGE_LOOP('NONE',(#43,#45,#46,#48));
#50=FACE_BOUND('LOOP1',#49,.T.);
#51=ADVANCED_FACE('FACE139',(#50),#41,.T.);
#52=CARTESIAN_POINT('POINT205',(1.07312254785455E-016,0.0E+000,
   -1.7526E+000));
#53=VERTEX_POINT('VERTEX205',#52);
#54=CARTESIAN_POINT('POINT206',(-4.88470218050138E-016,
   -2.14433213812379E-016,1.7526E+000));
#55=VERTEX_POINT('VERTEX206',#54);
#56=CARTESIAN_POINT('POS307',(-1.76247905159244E-016,
   -1.95674482349743E-032,-9.78372411748716E-033));
#57=DIRECTION('DIR487',(1.0E+000,0.0E+000,6.12303176911189E-017));
#58=DIRECTION('DIR488',(6.12303176911189E-017,0.0E+000,-1.0E+000));
#59=AXIS2_PLACEMENT_3D('AXIS181',#56,#57,#58);
#60=CIRCLE('ELLIPSE88',#59,1.7526E+000);
#61=EDGE_CURVE('EDGE309',#53,#55,#60,.T.);
#62=ORIENTED_EDGE('COEDGE613',*,*,#61,.T.);
#63=EDGE_CURVE('EDGE310',#55,#53,#60,.T.);
#64=ORIENTED_EDGE('COEDGE614',*,*,#63,.T.);
#65=EDGE_LOOP('NONE',(#62,#64));
#66=FACE_BOUND('LOOP1',#65,.T.);
#67=ORIENTED_EDGE('COEDGE615',*,*,#18,.F.);
#68=ORIENTED_EDGE('COEDGE616',*,*,#47,.F.);
#69=EDGE_LOOP('NONE',(#67,#68));
#70=FACE_BOUND('LOOP1',#69,.T.);
#71=CARTESIAN_POINT('POS308',(-2.18123822226957E-016,0.0E+000,
   1.18745E+000));
#72=DIRECTION('DIR489',(-1.0E+000,0.0E+000,-1.83690953073357E-016));
#73=DIRECTION('DIR490',(0.0E+000,1.0E+000,0.0E+000));
#74=AXIS2_PLACEMENT_3D('AXIS182',#71,#72,#73);
#75=PLANE('PLANE50',#74);
#76=ADVANCED_FACE('FACE140',(#66,#70),#75,.T.);
#77=CARTESIAN_POINT('POINT207',(3.81E-001,-6.97597263662374E-016,
   2.33531833333333E+000));
#78=VERTEX_POINT('VERTEX207',#77);
#79=CARTESIAN_POINT('POS309',(4.68923076923076E-001,
   -6.92529971190251E-016,2.31835476190476E+000));
#80=DIRECTION('DIR491',(9.81891764685774E-001,5.65896113029076E-017,
   -1.89442768250089E-001));
#81=VECTOR('VEC127',#80,1.0E+000);
#82=LINE('STRAIGHT127',#79,#81);
#83=EDGE_CURVE('EDGE311',#4,#78,#82,.T.);
#84=ORIENTED_EDGE('COEDGE617',*,*,#83,.F.);
#85=ORIENTED_EDGE('COEDGE618',*,*,#33,.T.);
#86=CARTESIAN_POINT('POINT208',(3.81E-001,1.26956639750195E-015,
   -2.33531833333333E+000));
#87=VERTEX_POINT('VERTEX208',#86);
#88=CARTESIAN_POINT('POS310',(4.68923076923077E-001,
   6.92529971190251E-016,-2.31835476190476E+000));
#89=DIRECTION('DIR492',(-9.81891764685774E-001,5.65896113029076E-017,
   -1.89442768250089E-001));
#90=VECTOR('VEC128',#89,1.0E+000);
#91=LINE('STRAIGHT128',#88,#90);
#92=EDGE_CURVE('EDGE312',#87,#21,#91,.T.);
#93=ORIENTED_EDGE('COEDGE619',*,*,#92,.F.);
#94=CARTESIAN_POINT('POS311',(3.81E-001,0.0E+000,6.99862531209489E-017))
   ;
#95=DIRECTION('DIR493',(1.0E+000,7.99121344207245E-035,
   1.83690953073357E-016));
#96=DIRECTION('DIR494',(-1.83690953073357E-016,-4.21176769155167E-016,
   1.0E+000));
#97=AXIS2_PLACEMENT_3D('AXIS183',#94,#95,#96);
#98=CIRCLE('ELLIPSE89',#97,2.33531833333333E+000);
#99=EDGE_CURVE('EDGE313',#78,#87,#98,.T.);
#100=ORIENTED_EDGE('COEDGE620',*,*,#99,.F.);
#101=EDGE_LOOP('NONE',(#84,#85,#93,#100));
#102=FACE_BOUND('LOOP1',#101,.T.);
#103=CARTESIAN_POINT('POS312',(4.68923076923077E-001,0.0E+000,
   8.61369269180909E-017));
#104=DIRECTION('DIR495',(-1.0E+000,0.0E+000,-1.83690953073357E-016));
#105=DIRECTION('DIR496',(-1.83690953073357E-016,-4.21176769155167E-016,
   1.0E+000));
#106=AXIS2_PLACEMENT_3D('AXIS184',#103,#104,#105);
#107=CONICAL_SURFACE('CONE_SURF45',#106,2.31835476190476E+000,
   1.90594607103883E-001);
#108=ADVANCED_FACE('FACE141',(#102),#107,.T.);
#109=ORIENTED_EDGE('COEDGE621',*,*,#83,.T.);
#110=EDGE_CURVE('EDGE314',#87,#78,#98,.T.);
#111=ORIENTED_EDGE('COEDGE622',*,*,#110,.F.);
#112=ORIENTED_EDGE('COEDGE623',*,*,#92,.T.);
#113=ORIENTED_EDGE('COEDGE624',*,*,#44,.T.);
#114=EDGE_LOOP('NONE',(#109,#111,#112,#113));
#115=FACE_BOUND('LOOP1',#114,.T.);
#116=ADVANCED_FACE('FACE142',(#115),#107,.T.);
#117=CARTESIAN_POINT('POINT209',(4.2926E-001,7.88511785162691E-017,
   1.32334E+000));
#118=VERTEX_POINT('VERTEX209',#117);
#119=CARTESIAN_POINT('POS313',(2.1463E-001,-1.61889188267614E-016,
   1.53797E+000));
#120=DIRECTION('DIR497',(-7.07106781186548E-001,-1.73108310923648E-016,
   7.07106781186548E-001));
#121=VECTOR('VEC129',#120,1.0E+000);
#122=LINE('STRAIGHT129',#119,#121);
#123=EDGE_CURVE('EDGE315',#118,#55,#122,.T.);
#124=ORIENTED_EDGE('COEDGE625',*,*,#123,.T.);
#125=ORIENTED_EDGE('COEDGE626',*,*,#61,.F.);
#126=CARTESIAN_POINT('POINT210',(4.2926E-001,2.14480067411208E-016,
   -1.32334E+000));
#127=VERTEX_POINT('VERTEX210',#126);
#128=CARTESIAN_POINT('POS314',(2.1463E-001,2.14456640611793E-016,
   -1.53797E+000));
#129=DIRECTION('DIR498',(7.07106781186548E-001,7.71804907390135E-020,
   7.07106781186548E-001));
#130=VECTOR('VEC130',#129,1.0E+000);
#131=LINE('STRAIGHT130',#128,#130);
#132=EDGE_CURVE('EDGE316',#53,#127,#131,.T.);
#133=ORIENTED_EDGE('COEDGE627',*,*,#132,.T.);
#134=CARTESIAN_POINT('POS315',(4.2926E-001,5.25674523441794E-017,
   2.62837261720897E-017));
#135=DIRECTION('DIR499',(-1.0E+000,-1.22460635382238E-016,
   -6.12303176911189E-017));
#136=DIRECTION('DIR500',(-6.12303176911189E-017,1.09149696753734E-019,
   1.0E+000));
#137=AXIS2_PLACEMENT_3D('AXIS185',#134,#135,#136);
#138=CIRCLE('ELLIPSE90',#137,1.32334E+000);
#139=EDGE_CURVE('EDGE317',#118,#127,#138,.T.);
#140=ORIENTED_EDGE('COEDGE628',*,*,#139,.F.);
#141=EDGE_LOOP('NONE',(#124,#125,#133,#140));
#142=FACE_BOUND('LOOP1',#141,.T.);
#143=CARTESIAN_POINT('POS316',(2.1463E-001,2.62837261720897E-017,
   1.31418630860449E-017));
#144=DIRECTION('DIR501',(-1.0E+000,-1.22460635382238E-016,
   -6.12303176911189E-017));
#145=DIRECTION('DIR502',(-6.12303176911189E-017,1.09149696753734E-019,
   1.0E+000));
#146=AXIS2_PLACEMENT_3D('AXIS186',#143,#144,#145);
#147=CONICAL_SURFACE('CONE_SURF46',#146,1.53797E+000,
   7.85398163397448E-001);
#148=ADVANCED_FACE('FACE143',(#142),#147,.F.);
#149=ORIENTED_EDGE('COEDGE629',*,*,#123,.F.);
#150=EDGE_CURVE('EDGE318',#127,#118,#138,.T.);
#151=ORIENTED_EDGE('COEDGE630',*,*,#150,.F.);
#152=ORIENTED_EDGE('COEDGE631',*,*,#132,.F.);
#153=ORIENTED_EDGE('COEDGE632',*,*,#63,.F.);
#154=EDGE_LOOP('NONE',(#149,#151,#152,#153));
#155=FACE_BOUND('LOOP1',#154,.T.);
#156=ADVANCED_FACE('FACE144',(#155),#147,.F.);
#157=ORIENTED_EDGE('COEDGE633',*,*,#110,.T.);
#158=ORIENTED_EDGE('COEDGE634',*,*,#99,.T.);
#159=EDGE_LOOP('NONE',(#157,#158));
#160=FACE_BOUND('LOOP1',#159,.T.);
#161=CARTESIAN_POINT('POINT211',(3.80999999999999E-001,0.0E+000,
   2.96545E+000));
#162=VERTEX_POINT('VERTEX211',#161);
#163=CARTESIAN_POINT('POINT212',(3.81000000000001E-001,
   3.63150891194257E-016,-2.96545E+000));
#164=VERTEX_POINT('VERTEX212',#163);
#165=CARTESIAN_POINT('POS317',(3.81E-001,0.0E+000,-7.00585423007993E-017
   ));
#166=DIRECTION('DIR503',(-1.0E+000,0.0E+000,-1.83880688453542E-016));
#167=DIRECTION('DIR504',(-1.83880688453542E-016,0.0E+000,1.0E+000));
#168=AXIS2_PLACEMENT_3D('AXIS187',#165,#166,#167);
#169=CIRCLE('ELLIPSE91',#168,2.96545E+000);
#170=EDGE_CURVE('EDGE319',#162,#164,#169,.T.);
#171=ORIENTED_EDGE('COEDGE635',*,*,#170,.T.);
#172=EDGE_CURVE('EDGE320',#164,#162,#169,.T.);
#173=ORIENTED_EDGE('COEDGE636',*,*,#172,.T.);
#174=EDGE_LOOP('NONE',(#171,#173));
#175=FACE_BOUND('LOOP1',#174,.T.);
#176=CARTESIAN_POINT('POS318',(3.81E-001,0.0E+000,-7.00585423007993E-017
   ));
#177=DIRECTION('DIR505',(-1.0E+000,0.0E+000,-1.83880688453542E-016));
#178=DIRECTION('DIR506',(0.0E+000,1.0E+000,0.0E+000));
#179=AXIS2_PLACEMENT_3D('AXIS188',#176,#177,#178);
#180=PLANE('PLANE51',#179);
#181=ADVANCED_FACE('FACE145',(#160,#175),#180,.T.);
#182=CARTESIAN_POINT('POINT213',(2.11074E+000,3.87723842290057E-016,
   1.32334E+000));
#183=VERTEX_POINT('VERTEX213',#182);
#184=CARTESIAN_POINT('POS319',(1.27E+000,-6.38760813158642E-018,
   1.32334E+000));
#185=DIRECTION('DIR507',(-1.0E+000,-1.22460635382238E-016,
   -6.12303176911189E-017));
#186=VECTOR('VEC131',#185,1.0E+000);
#187=LINE('STRAIGHT131',#184,#186);
#188=EDGE_CURVE('EDGE321',#183,#118,#187,.T.);
#189=ORIENTED_EDGE('COEDGE637',*,*,#188,.T.);
#190=ORIENTED_EDGE('COEDGE638',*,*,#139,.T.);
#191=CARTESIAN_POINT('POINT214',(2.11074E+000,4.20395176593733E-016,
   -1.32334E+000));
#192=VERTEX_POINT('VERTEX214',#191);
#193=CARTESIAN_POINT('POS320',(1.27E+000,3.1743762200247E-016,
   -1.32334E+000));
#194=DIRECTION('DIR508',(1.0E+000,1.22460635382238E-016,
   6.12303176911189E-017));
#195=VECTOR('VEC132',#194,1.0E+000);
#196=LINE('STRAIGHT132',#193,#195);
#197=EDGE_CURVE('EDGE322',#127,#192,#196,.T.);
#198=ORIENTED_EDGE('COEDGE639',*,*,#197,.T.);
#199=CARTESIAN_POINT('POS321',(2.11074E+000,2.58482561526704E-016,
   1.29241280763352E-016));
#200=DIRECTION('DIR509',(-1.0E+000,-1.22460635382238E-016,
   -6.12303176911189E-017));
#201=DIRECTION('DIR510',(-6.12303176911189E-017,1.09149696753734E-019,
   1.0E+000));
#202=AXIS2_PLACEMENT_3D('AXIS189',#199,#200,#201);
#203=CIRCLE('ELLIPSE92',#202,1.32334E+000);
#204=EDGE_CURVE('EDGE323',#183,#192,#203,.T.);
#205=ORIENTED_EDGE('COEDGE640',*,*,#204,.F.);
#206=EDGE_LOOP('NONE',(#189,#190,#198,#205));
#207=FACE_BOUND('LOOP1',#206,.T.);
#208=CARTESIAN_POINT('POS322',(1.27E+000,1.55525006935442E-016,
   7.7762503467721E-017));
#209=DIRECTION('DIR511',(-1.0E+000,-1.22460635382238E-016,
   -6.12303176911189E-017));
#210=DIRECTION('DIR512',(-6.12303176911189E-017,1.09149696753734E-019,
   1.0E+000));
#211=AXIS2_PLACEMENT_3D('AXIS190',#208,#209,#210);
#212=CYLINDRICAL_SURFACE('CONE_SURF47',#211,1.32334E+000);
#213=ADVANCED_FACE('FACE146',(#207),#212,.F.);
#214=ORIENTED_EDGE('COEDGE641',*,*,#188,.F.);
#215=EDGE_CURVE('EDGE324',#192,#183,#203,.T.);
#216=ORIENTED_EDGE('COEDGE642',*,*,#215,.F.);
#217=ORIENTED_EDGE('COEDGE643',*,*,#197,.F.);
#218=ORIENTED_EDGE('COEDGE644',*,*,#150,.T.);
#219=EDGE_LOOP('NONE',(#214,#216,#217,#218));
#220=FACE_BOUND('LOOP1',#219,.T.);
#221=ADVANCED_FACE('FACE147',(#220),#212,.F.);
#222=CARTESIAN_POINT('POINT215',(7.61999999999999E-001,0.0E+000,
   2.96545E+000));
#223=VERTEX_POINT('VERTEX215',#222);
#224=CARTESIAN_POINT('POS323',(5.71499999999999E-001,
   -3.63150891194257E-016,2.96545E+000));
#225=DIRECTION('DIR513',(-1.0E+000,0.0E+000,-1.83880688453542E-016));
#226=VECTOR('VEC133',#225,1.0E+000);
#227=LINE('STRAIGHT133',#224,#226);
#228=EDGE_CURVE('EDGE325',#223,#162,#227,.T.);
#229=ORIENTED_EDGE('COEDGE645',*,*,#228,.F.);
#230=CARTESIAN_POINT('POINT216',(7.62E-001,3.63150891194257E-016,
   -2.96545E+000));
#231=VERTEX_POINT('VERTEX216',#230);
#232=CARTESIAN_POINT('POS324',(7.62E-001,0.0E+000,-1.95674482349743E-032
   ));
#233=DIRECTION('DIR514',(1.0E+000,0.0E+000,1.83880688453542E-016));
#234=DIRECTION('DIR515',(-1.83880688453542E-016,0.0E+000,1.0E+000));
#235=AXIS2_PLACEMENT_3D('AXIS191',#232,#233,#234);
#236=CIRCLE('ELLIPSE93',#235,2.96545E+000);
#237=EDGE_CURVE('EDGE326',#231,#223,#236,.T.);
#238=ORIENTED_EDGE('COEDGE646',*,*,#237,.F.);
#239=CARTESIAN_POINT('POS325',(5.715E-001,3.63150891194257E-016,
   -2.96545E+000));
#240=DIRECTION('DIR516',(1.0E+000,-0.0E+000,1.83880688453542E-016));
#241=VECTOR('VEC134',#240,1.0E+000);
#242=LINE('STRAIGHT134',#239,#241);
#243=EDGE_CURVE('EDGE327',#164,#231,#242,.T.);
#244=ORIENTED_EDGE('COEDGE647',*,*,#243,.F.);
#245=ORIENTED_EDGE('COEDGE648',*,*,#170,.F.);
#246=EDGE_LOOP('NONE',(#229,#238,#244,#245));
#247=FACE_BOUND('LOOP1',#246,.T.);
#248=CARTESIAN_POINT('POS326',(5.715E-001,0.0E+000,
   -3.50292711503997E-017));
#249=DIRECTION('DIR517',(-1.0E+000,0.0E+000,-1.83880688453542E-016));
#250=DIRECTION('DIR518',(-1.83880688453542E-016,0.0E+000,1.0E+000));
#251=AXIS2_PLACEMENT_3D('AXIS192',#248,#249,#250);
#252=CYLINDRICAL_SURFACE('CONE_SURF48',#251,2.96545E+000);
#253=ADVANCED_FACE('FACE148',(#247),#252,.T.);
#254=ORIENTED_EDGE('COEDGE649',*,*,#228,.T.);
#255=ORIENTED_EDGE('COEDGE650',*,*,#172,.F.);
#256=ORIENTED_EDGE('COEDGE651',*,*,#243,.T.);
#257=EDGE_CURVE('EDGE328',#223,#231,#236,.T.);
#258=ORIENTED_EDGE('COEDGE652',*,*,#257,.F.);
#259=EDGE_LOOP('NONE',(#254,#255,#256,#258));
#260=FACE_BOUND('LOOP1',#259,.T.);
#261=ADVANCED_FACE('FACE149',(#260),#252,.T.);
#262=CARTESIAN_POINT('POINT217',(2.54E+000,9.66168000585045E-017,
   1.7526E+000));
#263=VERTEX_POINT('VERTEX217',#262);
#264=CARTESIAN_POINT('POS327',(2.32537E+000,9.65933732590904E-017,
   1.53797E+000));
#265=DIRECTION('DIR519',(-7.07106781186547E-001,-7.71804907389815E-020,
   -7.07106781186548E-001));
#266=VECTOR('VEC135',#265,1.0E+000);
#267=LINE('STRAIGHT135',#264,#266);
#268=EDGE_CURVE('EDGE329',#263,#183,#267,.T.);
#269=ORIENTED_EDGE('COEDGE653',*,*,#268,.T.);
#270=ORIENTED_EDGE('COEDGE654',*,*,#204,.T.);
#271=CARTESIAN_POINT('POINT218',(2.54E+000,4.66575020806326E-016,
   -1.7526E+000));
#272=VERTEX_POINT('VERTEX218',#271);
#273=CARTESIAN_POINT('POS328',(2.32537E+000,4.72939202138498E-016,
   -1.53797E+000));
#274=DIRECTION('DIR520',(7.07106781186547E-001,1.73108310923648E-016,
   -7.07106781186548E-001));
#275=VECTOR('VEC136',#274,1.0E+000);
#276=LINE('STRAIGHT136',#273,#275);
#277=EDGE_CURVE('EDGE330',#192,#272,#276,.T.);
#278=ORIENTED_EDGE('COEDGE655',*,*,#277,.T.);
#279=CARTESIAN_POINT('POS329',(2.54E+000,3.11050013870884E-016,
   1.55525006935442E-016));
#280=DIRECTION('DIR521',(-1.0E+000,0.0E+000,-6.12303176911189E-017));
#281=DIRECTION('DIR522',(6.12303176911189E-017,0.0E+000,-1.0E+000));
#282=AXIS2_PLACEMENT_3D('AXIS193',#279,#280,#281);
#283=CIRCLE('ELLIPSE94',#282,1.7526E+000);
#284=EDGE_CURVE('EDGE331',#263,#272,#283,.T.);
#285=ORIENTED_EDGE('COEDGE656',*,*,#284,.F.);
#286=EDGE_LOOP('NONE',(#269,#270,#278,#285));
#287=FACE_BOUND('LOOP1',#286,.T.);
#288=CARTESIAN_POINT('POS330',(2.32537E+000,2.84766287698794E-016,
   1.42383143849397E-016));
#289=DIRECTION('DIR523',(1.0E+000,1.22460635382238E-016,
   6.12303176911189E-017));
#290=DIRECTION('DIR524',(-6.12303176911189E-017,1.09149696753734E-019,
   1.0E+000));
#291=AXIS2_PLACEMENT_3D('AXIS194',#288,#289,#290);
#292=CONICAL_SURFACE('CONE_SURF49',#291,1.53797E+000,
   7.85398163397448E-001);
#293=ADVANCED_FACE('FACE150',(#287),#292,.F.);
#294=ORIENTED_EDGE('COEDGE657',*,*,#268,.F.);
#295=EDGE_CURVE('EDGE332',#272,#263,#283,.T.);
#296=ORIENTED_EDGE('COEDGE658',*,*,#295,.F.);
#297=ORIENTED_EDGE('COEDGE659',*,*,#277,.F.);
#298=ORIENTED_EDGE('COEDGE660',*,*,#215,.T.);
#299=EDGE_LOOP('NONE',(#294,#296,#297,#298));
#300=FACE_BOUND('LOOP1',#299,.T.);
#301=ADVANCED_FACE('FACE151',(#300),#292,.F.);
#302=ORIENTED_EDGE('COEDGE661',*,*,#257,.T.);
#303=ORIENTED_EDGE('COEDGE662',*,*,#237,.T.);
#304=EDGE_LOOP('NONE',(#302,#303));
#305=FACE_BOUND('LOOP1',#304,.T.);
#306=CARTESIAN_POINT('POINT219',(7.61999999999999E-001,
   -4.66575020806326E-017,3.556E+000));
#307=VERTEX_POINT('VERTEX219',#306);
#308=CARTESIAN_POINT('POINT220',(7.62E-001,3.02860862669889E-015,
   -3.556E+000));
#309=VERTEX_POINT('VERTEX220',#308);
#310=CARTESIAN_POINT('POS331',(7.62E-001,0.0E+000,1.39972506241898E-016)
   );
#311=DIRECTION('DIR525',(1.0E+000,2.18952885050753E-047,
   1.83690953073357E-016));
#312=DIRECTION('DIR526',(-1.83690953073357E-016,-9.74150350426919E-016,
   1.0E+000));
#313=AXIS2_PLACEMENT_3D('AXIS195',#310,#311,#312);
#314=CIRCLE('ELLIPSE95',#313,3.556E+000);
#315=EDGE_CURVE('EDGE333',#307,#309,#314,.T.);
#316=ORIENTED_EDGE('COEDGE663',*,*,#315,.F.);
#317=EDGE_CURVE('EDGE334',#309,#307,#314,.T.);
#318=ORIENTED_EDGE('COEDGE664',*,*,#317,.F.);
#319=EDGE_LOOP('NONE',(#316,#318));
#320=FACE_BOUND('LOOP1',#319,.T.);
#321=CARTESIAN_POINT('POS332',(7.61999999999999E-001,
   -4.66575020806326E-017,1.778E+000));
#322=DIRECTION('DIR527',(-1.0E+000,0.0E+000,-1.83690953073357E-016));
#323=DIRECTION('DIR528',(0.0E+000,1.0E+000,0.0E+000));
#324=AXIS2_PLACEMENT_3D('AXIS196',#321,#322,#323);
#325=PLANE('PLANE52',#324);
#326=ADVANCED_FACE('FACE152',(#305,#320),#325,.T.);
#327=CARTESIAN_POINT('POINT221',(2.24366666666667E+000,
   -1.37380422792974E-016,3.556E+000));
#328=VERTEX_POINT('VERTEX221',#327);
#329=CARTESIAN_POINT('POS333',(1.50283333333333E+000,
   -3.02860862669889E-015,3.556E+000));
#330=DIRECTION('DIR529',(1.0E+000,0.0E+000,1.83690953073357E-016));
#331=VECTOR('VEC137',#330,1.0E+000);
#332=LINE('STRAIGHT137',#329,#331);
#333=EDGE_CURVE('EDGE335',#307,#328,#332,.T.);
#334=ORIENTED_EDGE('COEDGE665',*,*,#333,.T.);
#335=CARTESIAN_POINT('POINT222',(2.24366666666667E+000,
   3.02860862669889E-015,-3.556E+000));
#336=VERTEX_POINT('VERTEX222',#335);
#337=CARTESIAN_POINT('POS334',(2.24366666666667E+000,0.0E+000,
   4.12141268378921E-016));
#338=DIRECTION('DIR530',(1.0E+000,2.18952885050753E-047,
   1.83690953073357E-016));
#339=DIRECTION('DIR531',(-1.83690953073357E-016,-9.74150350426919E-016,
   1.0E+000));
#340=AXIS2_PLACEMENT_3D('AXIS197',#337,#338,#339);
#341=CIRCLE('ELLIPSE96',#340,3.556E+000);
#342=EDGE_CURVE('EDGE336',#336,#328,#341,.T.);
#343=ORIENTED_EDGE('COEDGE666',*,*,#342,.F.);
#344=CARTESIAN_POINT('POS335',(1.50283333333333E+000,
   3.02860862669889E-015,-3.556E+000));
#345=DIRECTION('DIR532',(-1.0E+000,-0.0E+000,-1.83690953073357E-016));
#346=VECTOR('VEC138',#345,1.0E+000);
#347=LINE('STRAIGHT138',#344,#346);
#348=EDGE_CURVE('EDGE337',#336,#309,#347,.T.);
#349=ORIENTED_EDGE('COEDGE667',*,*,#348,.T.);
#350=ORIENTED_EDGE('COEDGE668',*,*,#317,.T.);
#351=EDGE_LOOP('NONE',(#334,#343,#349,#350));
#352=FACE_BOUND('LOOP1',#351,.T.);
#353=CARTESIAN_POINT('POS336',(1.50283333333333E+000,0.0E+000,
   2.76056887310409E-016));
#354=DIRECTION('DIR533',(1.0E+000,2.18952885050753E-047,
   1.83690953073357E-016));
#355=DIRECTION('DIR534',(-1.83690953073357E-016,-9.74150350426919E-016,
   1.0E+000));
#356=AXIS2_PLACEMENT_3D('AXIS198',#353,#354,#355);
#357=CYLINDRICAL_SURFACE('CONE_SURF50',#356,3.556E+000);
#358=ADVANCED_FACE('FACE153',(#352),#357,.T.);
#359=ORIENTED_EDGE('COEDGE669',*,*,#295,.T.);
#360=ORIENTED_EDGE('COEDGE670',*,*,#284,.T.);
#361=EDGE_LOOP('NONE',(#359,#360));
#362=FACE_BOUND('LOOP1',#361,.T.);
#363=CARTESIAN_POINT('POINT223',(2.54E+000,-1.55525006935442E-016,
   3.25966666666667E+000));
#364=VERTEX_POINT('VERTEX223',#363);
#365=CARTESIAN_POINT('POINT224',(2.54E+000,2.77622457447398E-015,
   -3.25966666666667E+000));
#366=VERTEX_POINT('VERTEX224',#365);
#367=CARTESIAN_POINT('POS337',(2.54E+000,0.0E+000,4.66575020806326E-016)
   );
#368=DIRECTION('DIR535',(1.0E+000,2.18952885050753E-047,
   1.83690953073357E-016));
#369=DIRECTION('DIR536',(-1.83690953073357E-016,-9.74150350426919E-016,
   1.0E+000));
#370=AXIS2_PLACEMENT_3D('AXIS199',#367,#368,#369);
#371=CIRCLE('ELLIPSE97',#370,3.25966666666667E+000);
#372=EDGE_CURVE('EDGE338',#364,#366,#371,.T.);
#373=ORIENTED_EDGE('COEDGE671',*,*,#372,.T.);
#374=EDGE_CURVE('EDGE339',#366,#364,#371,.T.);
#375=ORIENTED_EDGE('COEDGE672',*,*,#374,.T.);
#376=EDGE_LOOP('NONE',(#373,#375));
#377=FACE_BOUND('LOOP1',#376,.T.);
#378=CARTESIAN_POINT('POS338',(2.54E+000,-1.55525006935442E-016,
   1.62983333333333E+000));
#379=DIRECTION('DIR537',(1.0E+000,0.0E+000,1.83690953073357E-016));
#380=DIRECTION('DIR538',(0.0E+000,1.0E+000,0.0E+000));
#381=AXIS2_PLACEMENT_3D('AXIS200',#378,#379,#380);
#382=PLANE('PLANE53',#381);
#383=ADVANCED_FACE('FACE154',(#362,#377),#382,.T.);
#384=ORIENTED_EDGE('COEDGE673',*,*,#333,.F.);
#385=ORIENTED_EDGE('COEDGE674',*,*,#315,.T.);
#386=ORIENTED_EDGE('COEDGE675',*,*,#348,.F.);
#387=EDGE_CURVE('EDGE340',#328,#336,#341,.T.);
#388=ORIENTED_EDGE('COEDGE676',*,*,#387,.F.);
#389=EDGE_LOOP('NONE',(#384,#385,#386,#388));
#390=FACE_BOUND('LOOP1',#389,.T.);
#391=ADVANCED_FACE('FACE155',(#390),#357,.T.);
#392=CARTESIAN_POINT('POS339',(2.39183333333333E+000,
   -2.90241660058643E-015,3.40783333333333E+000));
#393=DIRECTION('DIR539',(7.07106781186548E-001,6.02235572974932E-016,
   -7.07106781186547E-001));
#394=VECTOR('VEC139',#393,1.0E+000);
#395=LINE('STRAIGHT139',#392,#394);
#396=EDGE_CURVE('EDGE341',#328,#364,#395,.T.);
#397=ORIENTED_EDGE('COEDGE677',*,*,#396,.T.);
#398=ORIENTED_EDGE('COEDGE678',*,*,#374,.F.);
#399=CARTESIAN_POINT('POS340',(2.39183333333333E+000,
   2.90241660058643E-015,-3.40783333333333E+000));
#400=DIRECTION('DIR540',(-7.07106781186548E-001,6.02235572974932E-016,
   -7.07106781186547E-001));
#401=VECTOR('VEC140',#400,1.0E+000);
#402=LINE('STRAIGHT140',#399,#401);
#403=EDGE_CURVE('EDGE342',#366,#336,#402,.T.);
#404=ORIENTED_EDGE('COEDGE679',*,*,#403,.T.);
#405=ORIENTED_EDGE('COEDGE680',*,*,#342,.T.);
#406=EDGE_LOOP('NONE',(#397,#398,#404,#405));
#407=FACE_BOUND('LOOP1',#406,.T.);
#408=CARTESIAN_POINT('POS341',(2.39183333333333E+000,0.0E+000,
   4.39358144592623E-016));
#409=DIRECTION('DIR541',(-1.0E+000,0.0E+000,-1.83690953073357E-016));
#410=DIRECTION('DIR542',(-1.83690953073357E-016,-9.74150350426919E-016,
   1.0E+000));
#411=AXIS2_PLACEMENT_3D('AXIS201',#408,#409,#410);
#412=CONICAL_SURFACE('CONE_SURF51',#411,3.40783333333333E+000,
   7.85398163397448E-001);
#413=ADVANCED_FACE('FACE156',(#407),#412,.T.);
#414=ORIENTED_EDGE('COEDGE681',*,*,#396,.F.);
#415=ORIENTED_EDGE('COEDGE682',*,*,#387,.T.);
#416=ORIENTED_EDGE('COEDGE683',*,*,#403,.F.);
#417=ORIENTED_EDGE('COEDGE684',*,*,#372,.F.);
#418=EDGE_LOOP('NONE',(#414,#415,#416,#417));
#419=FACE_BOUND('LOOP1',#418,.T.);
#420=ADVANCED_FACE('FACE157',(#419),#412,.T.);
#421=CLOSED_SHELL('SHELL2',(#42,#51,#76,#108,#116,#148,#156,#181,#213,
   #221,#253,#261,#293,#301,#326,#358,#383,#391,#413,#420));
#422=MANIFOLD_SOLID_BREP('LUMP2',#421);
#423=ADVANCED_BREP_SHAPE_REPRESENTATION('BODY1',(#422),#424);
#424=(GEOMETRIC_REPRESENTATION_CONTEXT(3) 
   GLOBAL_UNCERTAINTY_ASSIGNED_CONTEXT((#425)) 
   GLOBAL_UNIT_ASSIGNED_CONTEXT((#426,#427,#428)) REPRESENTATION_CONTEXT
   ('',''));
#425=UNCERTAINTY_MEASURE_WITH_UNIT(LENGTH_MEASURE(1.0E-006),#426,'','');
#426=(LENGTH_UNIT() NAMED_UNIT(*) SI_UNIT(.MILLI.,.METRE.));
#427=(NAMED_UNIT(*) PLANE_ANGLE_UNIT() SI_UNIT($,.RADIAN.));
#428=(NAMED_UNIT(*) SI_UNIT($,.STERADIAN.) SOLID_ANGLE_UNIT());
#429=APPLICATION_CONTEXT(
   'CONFIGURATION CONTROLLED 3D DESIGNS OF MECHANICAL PARTS AND 
ASSEMBLIES');
#430=APPLICATION_PROTOCOL_DEFINITION('INTERNATIONAL STANDARD',
   'config_control_design',1994,#429);
#431=MECHANICAL_CONTEXT('MECHANICAL_CONTEXT_NAME',#429,'mechanical');
#432=PRODUCT('PRODUCT_ID_2','PRODUCT_NAME_2','PRODUCT_DESCRIPTION',(#431
   ));
#433=PRODUCT_RELATED_PRODUCT_CATEGORY('detail',
   'PRODUCT_RELATED_PRODUCT_CATEGORY_DESCRIPTION',(#432));
#434=PERSON_AND_ORGANIZATION_ROLE('design_owner');
#435=CC_DESIGN_PERSON_AND_ORGANIZATION_ASSIGNMENT(#438,#434,(#432));
#436=PERSON('ID_9','PERSON_LAST_NAME','PERSON_FIRST_NAME',$,$,$);
#437=ORGANIZATION('ORGANIZATION_ID','ORGANIZATION_NAME',
   'ORGANIZATION_DESCRIPTION');
#438=PERSON_AND_ORGANIZATION(#436,#437);
#439=PRODUCT_DEFINITION_FORMATION_WITH_SPECIFIED_SOURCE(
   'PRODUCT_DEFINITION_FORMATION_ID',
   'PRODUCT_DEFINITION_FORMATION_DESCRIPTION',#432,.NOT_KNOWN.);
#440=PERSON_AND_ORGANIZATION_ROLE('creator');
#441=CC_DESIGN_PERSON_AND_ORGANIZATION_ASSIGNMENT(#444,#440,(#439));
#442=PERSON('ID_10','PERSON_LAST_NAME','PERSON_FIRST_NAME',$,$,$);
#443=ORGANIZATION('ORGANIZATION_ID','ORGANIZATION_NAME',
   'ORGANIZATION_DESCRIPTION');
#444=PERSON_AND_ORGANIZATION(#442,#443);
#445=PERSON_AND_ORGANIZATION_ROLE('part_supplier');
#446=CC_DESIGN_PERSON_AND_ORGANIZATION_ASSIGNMENT(#449,#445,(#439));
#447=PERSON('ID_11','PERSON_LAST_NAME','PERSON_FIRST_NAME',$,$,$);
#448=ORGANIZATION('ORGANIZATION_ID','ORGANIZATION_NAME',
   'ORGANIZATION_DESCRIPTION');
#449=PERSON_AND_ORGANIZATION(#447,#448);
#450=APPROVAL_STATUS('approved');
#451=APPROVAL(#450,'APPROVAL_LEVEL');
#452=CC_DESIGN_APPROVAL(#451,(#439));
#453=APPROVAL_ROLE('APPROVAL_ROLE');
#454=APPROVAL_PERSON_ORGANIZATION(#457,#451,#453);
#455=PERSON('ID_12','PERSON_LAST_NAME','PERSON_FIRST_NAME',$,$,$);
#456=ORGANIZATION('ORGANIZATION_ID','ORGANIZATION_NAME',
   'ORGANIZATION_DESCRIPTION');
#457=PERSON_AND_ORGANIZATION(#455,#456);
#458=APPROVAL_DATE_TIME(#462,#451);
#459=CALENDAR_DATE(1997,1,1);
#460=COORDINATED_UNIVERSAL_TIME_OFFSET(0,0,.AHEAD.);
#461=LOCAL_TIME(0,0,0.0E+000,#460);
#462=DATE_AND_TIME(#459,#461);
#463=SECURITY_CLASSIFICATION_LEVEL('classified');
#464=SECURITY_CLASSIFICATION('SECURITY_CLASSIFICATION_NAME',
   'SECURITY_CLASSIFICATION_PURPOSE',#463);
#465=CC_DESIGN_SECURITY_CLASSIFICATION(#464,(#439));
#466=APPROVAL_STATUS('approved');
#467=APPROVAL(#466,'APPROVAL_LEVEL');
#468=CC_DESIGN_APPROVAL(#467,(#464));
#469=APPROVAL_ROLE('APPROVAL_ROLE');
#470=APPROVAL_PERSON_ORGANIZATION(#473,#467,#469);
#471=PERSON('ID_13','PERSON_LAST_NAME','PERSON_FIRST_NAME',$,$,$);
#472=ORGANIZATION('ORGANIZATION_ID','ORGANIZATION_NAME',
   'ORGANIZATION_DESCRIPTION');
#473=PERSON_AND_ORGANIZATION(#471,#472);
#474=APPROVAL_DATE_TIME(#478,#467);
#475=CALENDAR_DATE(1997,1,1);
#476=COORDINATED_UNIVERSAL_TIME_OFFSET(0,0,.AHEAD.);
#477=LOCAL_TIME(0,0,0.0E+000,#476);
#478=DATE_AND_TIME(#475,#477);
#479=PERSON_AND_ORGANIZATION_ROLE('classification_officer');
#480=CC_DESIGN_PERSON_AND_ORGANIZATION_ASSIGNMENT(#483,#479,(#464));
#481=PERSON('ID_14','PERSON_LAST_NAME','PERSON_FIRST_NAME',$,$,$);
#482=ORGANIZATION('ORGANIZATION_ID','ORGANIZATION_NAME',
   'ORGANIZATION_DESCRIPTION');
#483=PERSON_AND_ORGANIZATION(#481,#482);
#484=DATE_TIME_ROLE('classification_date');
#485=CC_DESIGN_DATE_AND_TIME_ASSIGNMENT(#489,#484,(#464));
#486=CALENDAR_DATE(1997,1,1);
#487=COORDINATED_UNIVERSAL_TIME_OFFSET(0,0,.AHEAD.);
#488=LOCAL_TIME(0,0,0.0E+000,#487);
#489=DATE_AND_TIME(#486,#488);
#490=DESIGN_CONTEXT('DESIGN_CONTEXT_NAME',#429,'design');
#491=PRODUCT_DEFINITION('PRODUCT_DEFINITION_ID',
   'PRODUCT_DEFINITION_DESCRIPTION',#439,#490);
#492=PERSON_AND_ORGANIZATION_ROLE('creator');
#493=CC_DESIGN_PERSON_AND_ORGANIZATION_ASSIGNMENT(#496,#492,(#491));
#494=PERSON('ID_15','PERSON_LAST_NAME','PERSON_FIRST_NAME',$,$,$);
#495=ORGANIZATION('ORGANIZATION_ID','ORGANIZATION_NAME',
   'ORGANIZATION_DESCRIPTION');
#496=PERSON_AND_ORGANIZATION(#494,#495);
#497=DATE_TIME_ROLE('creation_date');
#498=CC_DESIGN_DATE_AND_TIME_ASSIGNMENT(#502,#497,(#491));
#499=CALENDAR_DATE(1997,1,1);
#500=COORDINATED_UNIVERSAL_TIME_OFFSET(0,0,.AHEAD.);
#501=LOCAL_TIME(0,0,0.0E+000,#500);
#502=DATE_AND_TIME(#499,#501);
#503=APPROVAL_STATUS('approved');
#504=APPROVAL(#503,'APPROVAL_LEVEL');
#505=CC_DESIGN_APPROVAL(#504,(#491));
#506=APPROVAL_ROLE('APPROVAL_ROLE');
#507=APPROVAL_PERSON_ORGANIZATION(#510,#504,#506);
#508=PERSON('ID_16','PERSON_LAST_NAME','PERSON_FIRST_NAME',$,$,$);
#509=ORGANIZATION('ORGANIZATION_ID','ORGANIZATION_NAME',
   'ORGANIZATION_DESCRIPTION');
#510=PERSON_AND_ORGANIZATION(#508,#509);
#511=APPROVAL_DATE_TIME(#515,#504);
#512=CALENDAR_DATE(1997,1,1);
#513=COORDINATED_UNIVERSAL_TIME_OFFSET(0,0,.AHEAD.);
#514=LOCAL_TIME(0,0,0.0E+000,#513);
#515=DATE_AND_TIME(#512,#514);
#516=PRODUCT_DEFINITION_SHAPE('PRODUCT_DEFINITION_SHAPE_NAME',
   'PRODUCT_DEFINITION_SHAPE_DESCRIPTION',#491);
#517=SHAPE_DEFINITION_REPRESENTATION(#516,#423);
ENDSEC;
END-ISO-10303-21;
                
                  
               
                   
                    
     
                
