ISO-10303-21;
HEADER;
FILE_DESCRIPTION(('starvars output'),'2;1');
FILE_NAME('cv20120701154324000000965.stp','15:43:24   2012/07/01',(
   'Thomas Industrial Network Germany GmbH'),(
   'Thomas Industrial Network Germany GmbH'),'unknown preprocess','ACIS'
   ,'unknown authorization');
FILE_SCHEMA(('CONFIG_CONTROL_DESIGN {UNKNOWN IMPLEMENTATION LEVEL}'));
ENDSEC;
/* ISO 10303-21 file written by STEP Caselib, ProSTEP GmbH, Germany */
DATA;
#1=CARTESIAN_POINT('POINT584',(-4.94569522054705E-016,0.0E+000,
   2.6924E+000));
#2=VERTEX_POINT('VERTEX584',#1);
#3=CARTESIAN_POINT('POINT585',(2.22738461538461E-001,
   -1.36383467620311E-017,2.6924E+000));
#4=VERTEX_POINT('VERTEX585',#3);
#5=CARTESIAN_POINT('POS1041',(1.1136923076923E-001,
   -9.37273750114565E-016,2.6924E+000));
#6=DIRECTION('DIR1498',(1.0E+000,0.0E+000,1.83690953073357E-016));
#7=VECTOR('VEC584',#6,1.0E+000);
#8=LINE('STRAIGHT584',#5,#7);
#9=EDGE_CURVE('EDGE899',#2,#4,#8,.T.);
#10=ORIENTED_EDGE('COEDGE1797',*,*,#9,.F.);
#11=CARTESIAN_POINT('POINT586',(4.94569522054705E-016,
   9.37273750114565E-016,-2.6924E+000));
#12=VERTEX_POINT('VERTEX586',#11);
#13=CARTESIAN_POINT('POS1042',(0.0E+000,0.0E+000,0.0E+000));
#14=DIRECTION('DIR1499',(1.0E+000,0.0E+000,1.83690953073357E-016));
#15=DIRECTION('DIR1500',(-1.83690953073357E-016,-4.7057894993972E-016,
   1.0E+000));
#16=AXIS2_PLACEMENT_3D('AXIS458',#13,#14,#15);
#17=CIRCLE('ELLIPSE180',#16,2.6924E+000);
#18=EDGE_CURVE('EDGE900',#2,#12,#17,.T.);
#19=ORIENTED_EDGE('COEDGE1798',*,*,#18,.T.);
#20=CARTESIAN_POINT('POINT587',(2.22738461538462E-001,
   9.37273750114565E-016,-2.6924E+000));
#21=VERTEX_POINT('VERTEX587',#20);
#22=CARTESIAN_POINT('POS1043',(1.11369230769231E-001,
   9.37273750114565E-016,-2.6924E+000));
#23=DIRECTION('DIR1501',(-1.0E+000,-0.0E+000,-1.83690953073357E-016));
#24=VECTOR('VEC585',#23,1.0E+000);
#25=LINE('STRAIGHT585',#22,#24);
#26=EDGE_CURVE('EDGE901',#21,#12,#25,.T.);
#27=ORIENTED_EDGE('COEDGE1799',*,*,#26,.F.);
#28=CARTESIAN_POINT('POS1044',(2.22738461538462E-001,0.0E+000,
   4.09150402860932E-017));
#29=DIRECTION('DIR1502',(1.0E+000,0.0E+000,1.83690953073357E-016));
#30=DIRECTION('DIR1503',(-1.83690953073357E-016,-4.7057894993972E-016,
   1.0E+000));
#31=AXIS2_PLACEMENT_3D('AXIS459',#28,#29,#30);
#32=CIRCLE('ELLIPSE181',#31,2.6924E+000);
#33=EDGE_CURVE('EDGE902',#4,#21,#32,.T.);
#34=ORIENTED_EDGE('COEDGE1800',*,*,#33,.F.);
#35=EDGE_LOOP('NONE',(#10,#19,#27,#34));
#36=FACE_BOUND('LOOP1',#35,.T.);
#37=CARTESIAN_POINT('POS1045',(1.11369230769231E-001,0.0E+000,
   2.04575201430466E-017));
#38=DIRECTION('DIR1504',(1.0E+000,0.0E+000,1.83690953073357E-016));
#39=DIRECTION('DIR1505',(-1.83690953073357E-016,-4.7057894993972E-016,
   1.0E+000));
#40=AXIS2_PLACEMENT_3D('AXIS460',#37,#38,#39);
#41=CYLINDRICAL_SURFACE('CONE_SURF80',#40,2.6924E+000);
#42=ADVANCED_FACE('FACE348',(#36),#41,.T.);
#43=ORIENTED_EDGE('COEDGE1801',*,*,#9,.T.);
#44=EDGE_CURVE('EDGE903',#21,#4,#32,.T.);
#45=ORIENTED_EDGE('COEDGE1802',*,*,#44,.F.);
#46=ORIENTED_EDGE('COEDGE1803',*,*,#26,.T.);
#47=EDGE_CURVE('EDGE904',#12,#2,#17,.T.);
#48=ORIENTED_EDGE('COEDGE1804',*,*,#47,.T.);
#49=EDGE_LOOP('NONE',(#43,#45,#46,#48));
#50=FACE_BOUND('LOOP1',#49,.T.);
#51=ADVANCED_FACE('FACE349',(#50),#41,.T.);
#52=CARTESIAN_POINT('POINT588',(1.27530505687062E-016,0.0E+000,
   -2.0828E+000));
#53=VERTEX_POINT('VERTEX588',#52);
#54=CARTESIAN_POINT('POINT589',(-7.43414000064363E-016,
   -2.54816152803206E-016,2.0828E+000));
#55=VERTEX_POINT('VERTEX589',#54);
#56=CARTESIAN_POINT('POS1046',(-3.52495810318487E-016,
   -3.91348964699486E-032,-1.95674482349743E-032));
#57=DIRECTION('DIR1506',(1.0E+000,0.0E+000,6.12303176911189E-017));
#58=DIRECTION('DIR1507',(6.12303176911189E-017,0.0E+000,-1.0E+000));
#59=AXIS2_PLACEMENT_3D('AXIS461',#56,#57,#58);
#60=CIRCLE('ELLIPSE182',#59,2.0828E+000);
#61=EDGE_CURVE('EDGE905',#53,#55,#60,.T.);
#62=ORIENTED_EDGE('COEDGE1805',*,*,#61,.T.);
#63=EDGE_CURVE('EDGE906',#55,#53,#60,.T.);
#64=ORIENTED_EDGE('COEDGE1806',*,*,#63,.T.);
#65=EDGE_LOOP('NONE',(#62,#64));
#66=FACE_BOUND('LOOP1',#65,.T.);
#67=ORIENTED_EDGE('COEDGE1807',*,*,#18,.F.);
#68=ORIENTED_EDGE('COEDGE1808',*,*,#47,.F.);
#69=EDGE_LOOP('NONE',(#67,#68));
#70=FACE_BOUND('LOOP1',#69,.T.);
#71=CARTESIAN_POINT('POS1047',(-2.47284761027353E-016,0.0E+000,
   1.3462E+000));
#72=DIRECTION('DIR1508',(-1.0E+000,0.0E+000,-1.83690953073357E-016));
#73=DIRECTION('DIR1509',(0.0E+000,1.0E+000,0.0E+000));
#74=AXIS2_PLACEMENT_3D('AXIS462',#71,#72,#73);
#75=PLANE('PLANE196',#74);
#76=ADVANCED_FACE('FACE350',(#66,#70),#75,.T.);
#77=CARTESIAN_POINT('POINT590',(4.82599999999999E-001,
   -9.21652520945989E-016,2.64752666666667E+000));
#78=VERTEX_POINT('VERTEX590',#77);
#79=CARTESIAN_POINT('POS1048',(5.9396923076923E-001,
   -9.14957708445171E-016,2.62829523809524E+000));
#80=DIRECTION('DIR1510',(9.85415878505769E-001,5.92369588651947E-017,
   -1.70163293305883E-001));
#81=VECTOR('VEC586',#80,1.0E+000);
#82=LINE('STRAIGHT586',#79,#81);
#83=EDGE_CURVE('EDGE907',#4,#78,#82,.T.);
#84=ORIENTED_EDGE('COEDGE1809',*,*,#83,.F.);
#85=ORIENTED_EDGE('COEDGE1810',*,*,#33,.T.);
#86=CARTESIAN_POINT('POINT591',(4.826E-001,1.57008811652882E-015,
   -2.64752666666667E+000));
#87=VERTEX_POINT('VERTEX591',#86);
#88=CARTESIAN_POINT('POS1049',(5.93969230769231E-001,
   9.1495770844517E-016,-2.62829523809524E+000));
#89=DIRECTION('DIR1511',(-9.85415878505769E-001,5.92369588651946E-017,
   -1.70163293305884E-001));
#90=VECTOR('VEC587',#89,1.0E+000);
#91=LINE('STRAIGHT587',#88,#90);
#92=EDGE_CURVE('EDGE908',#87,#21,#91,.T.);
#93=ORIENTED_EDGE('COEDGE1811',*,*,#92,.F.);
#94=CARTESIAN_POINT('POS1050',(4.826E-001,0.0E+000,8.86492539532019E-017
   ));
#95=DIRECTION('DIR1512',(1.0E+000,-1.54336322754805E-033,
   1.83690953073357E-016));
#96=DIRECTION('DIR1513',(-1.83690953073357E-016,-4.7057894993972E-016,
   1.0E+000));
#97=AXIS2_PLACEMENT_3D('AXIS463',#94,#95,#96);
#98=CIRCLE('ELLIPSE183',#97,2.64752666666667E+000);
#99=EDGE_CURVE('EDGE909',#78,#87,#98,.T.);
#100=ORIENTED_EDGE('COEDGE1812',*,*,#99,.F.);
#101=EDGE_LOOP('NONE',(#84,#85,#93,#100));
#102=FACE_BOUND('LOOP1',#101,.T.);
#103=CARTESIAN_POINT('POS1051',(5.93969230769231E-001,0.0E+000,
   1.09106774096248E-016));
#104=DIRECTION('DIR1514',(-1.0E+000,0.0E+000,-1.83690953073357E-016));
#105=DIRECTION('DIR1515',(-1.83690953073357E-016,-4.7057894993972E-016,
   1.0E+000));
#106=AXIS2_PLACEMENT_3D('AXIS464',#103,#104,#105);
#107=CONICAL_SURFACE('CONE_SURF81',#106,2.62829523809524E+000,
   1.70995376800284E-001);
#108=ADVANCED_FACE('FACE351',(#102),#107,.T.);
#109=ORIENTED_EDGE('COEDGE1813',*,*,#83,.T.);
#110=EDGE_CURVE('EDGE910',#87,#78,#98,.T.);
#111=ORIENTED_EDGE('COEDGE1814',*,*,#110,.F.);
#112=ORIENTED_EDGE('COEDGE1815',*,*,#92,.T.);
#113=ORIENTED_EDGE('COEDGE1816',*,*,#44,.T.);
#114=EDGE_LOOP('NONE',(#109,#111,#112,#113));
#115=FACE_BOUND('LOOP1',#114,.T.);
#116=ADVANCED_FACE('FACE352',(#115),#107,.T.);
#117=CARTESIAN_POINT('POINT592',(4.2926E-001,7.8851178516269E-017,
   1.65354E+000));
#118=VERTEX_POINT('VERTEX592',#117);
#119=CARTESIAN_POINT('POS1052',(2.1463E-001,-2.02273932836151E-016,
   1.86817E+000));
#120=DIRECTION('DIR1516',(-7.07106781186548E-001,-1.73102362378508E-016,
   7.07106781186548E-001));
#121=VECTOR('VEC588',#120,1.0E+000);
#122=LINE('STRAIGHT588',#119,#121);
#123=EDGE_CURVE('EDGE911',#118,#55,#122,.T.);
#124=ORIENTED_EDGE('COEDGE1817',*,*,#123,.T.);
#125=ORIENTED_EDGE('COEDGE1818',*,*,#61,.F.);
#126=CARTESIAN_POINT('POINT593',(4.2926E-001,2.54866617557456E-016,
   -1.65354E+000));
#127=VERTEX_POINT('VERTEX593',#126);
#128=CARTESIAN_POINT('POS1053',(2.1463E-001,2.54841385180331E-016,
   -1.86817E+000));
#129=DIRECTION('DIR1517',(7.07106781186548E-001,8.3129035878891E-020,
   7.07106781186548E-001));
#130=VECTOR('VEC589',#129,1.0E+000);
#131=LINE('STRAIGHT589',#128,#130);
#132=EDGE_CURVE('EDGE912',#53,#127,#131,.T.);
#133=ORIENTED_EDGE('COEDGE1819',*,*,#132,.T.);
#134=CARTESIAN_POINT('POS1054',(4.2926E-001,5.25674523441794E-017,
   2.62837261720897E-017));
#135=DIRECTION('DIR1518',(-1.0E+000,-1.22460635382238E-016,
   -6.12303176911189E-017));
#136=DIRECTION('DIR1519',(-6.12303176911189E-017,1.17562209966948E-019,
   1.0E+000));
#137=AXIS2_PLACEMENT_3D('AXIS465',#134,#135,#136);
#138=CIRCLE('ELLIPSE184',#137,1.65354E+000);
#139=EDGE_CURVE('EDGE913',#118,#127,#138,.T.);
#140=ORIENTED_EDGE('COEDGE1820',*,*,#139,.F.);
#141=EDGE_LOOP('NONE',(#124,#125,#133,#140));
#142=FACE_BOUND('LOOP1',#141,.T.);
#143=CARTESIAN_POINT('POS1055',(2.1463E-001,2.62837261720897E-017,
   1.31418630860448E-017));
#144=DIRECTION('DIR1520',(-1.0E+000,-1.22460635382238E-016,
   -6.12303176911189E-017));
#145=DIRECTION('DIR1521',(-6.12303176911189E-017,1.17562209966948E-019,
   1.0E+000));
#146=AXIS2_PLACEMENT_3D('AXIS466',#143,#144,#145);
#147=CONICAL_SURFACE('CONE_SURF82',#146,1.86817E+000,
   7.85398163397448E-001);
#148=ADVANCED_FACE('FACE353',(#142),#147,.F.);
#149=ORIENTED_EDGE('COEDGE1821',*,*,#123,.F.);
#150=EDGE_CURVE('EDGE914',#127,#118,#138,.T.);
#151=ORIENTED_EDGE('COEDGE1822',*,*,#150,.F.);
#152=ORIENTED_EDGE('COEDGE1823',*,*,#132,.F.);
#153=ORIENTED_EDGE('COEDGE1824',*,*,#63,.F.);
#154=EDGE_LOOP('NONE',(#149,#151,#152,#153));
#155=FACE_BOUND('LOOP1',#154,.T.);
#156=ADVANCED_FACE('FACE354',(#155),#147,.F.);
#157=ORIENTED_EDGE('COEDGE1825',*,*,#110,.T.);
#158=ORIENTED_EDGE('COEDGE1826',*,*,#99,.T.);
#159=EDGE_LOOP('NONE',(#157,#158));
#160=FACE_BOUND('LOOP1',#159,.T.);
#161=CARTESIAN_POINT('POINT594',(4.82599999999999E-001,0.0E+000,
   3.3147E+000));
#162=VERTEX_POINT('VERTEX594',#161);
#163=CARTESIAN_POINT('POINT595',(4.82600000000001E-001,
   4.05920268101503E-016,-3.3147E+000));
#164=VERTEX_POINT('VERTEX595',#163);
#165=CARTESIAN_POINT('POS1056',(4.826E-001,0.0E+000,
   -8.70664651486663E-017));
#166=DIRECTION('DIR1522',(-1.0E+000,0.0E+000,-1.80411241501588E-016));
#167=DIRECTION('DIR1523',(-1.80411241501588E-016,0.0E+000,1.0E+000));
#168=AXIS2_PLACEMENT_3D('AXIS467',#165,#166,#167);
#169=CIRCLE('ELLIPSE185',#168,3.3147E+000);
#170=EDGE_CURVE('EDGE915',#162,#164,#169,.T.);
#171=ORIENTED_EDGE('COEDGE1827',*,*,#170,.T.);
#172=EDGE_CURVE('EDGE916',#164,#162,#169,.T.);
#173=ORIENTED_EDGE('COEDGE1828',*,*,#172,.T.);
#174=EDGE_LOOP('NONE',(#171,#173));
#175=FACE_BOUND('LOOP1',#174,.T.);
#176=CARTESIAN_POINT('POS1057',(4.826E-001,0.0E+000,
   -8.70664651486663E-017));
#177=DIRECTION('DIR1524',(-1.0E+000,0.0E+000,-1.80411241501588E-016));
#178=DIRECTION('DIR1525',(0.0E+000,1.0E+000,0.0E+000));
#179=AXIS2_PLACEMENT_3D('AXIS468',#176,#177,#178);
#180=PLANE('PLANE197',#179);
#181=ADVANCED_FACE('FACE355',(#160,#175),#180,.T.);
#182=CARTESIAN_POINT('POINT596',(2.82194E+000,5.18364848115828E-016,
   1.65354E+000));
#183=VERTEX_POINT('VERTEX596',#182);
#184=CARTESIAN_POINT('POS1058',(1.6256E+000,-3.22715633591112E-018,
   1.65354E+000));
#185=DIRECTION('DIR1526',(-1.0E+000,-1.22460635382238E-016,
   -6.12303176911189E-017));
#186=VECTOR('VEC590',#185,1.0E+000);
#187=LINE('STRAIGHT590',#184,#186);
#188=EDGE_CURVE('EDGE917',#183,#118,#187,.T.);
#189=ORIENTED_EDGE('COEDGE1829',*,*,#188,.T.);
#190=ORIENTED_EDGE('COEDGE1830',*,*,#139,.T.);
#191=CARTESIAN_POINT('POINT597',(2.82194E+000,5.47875730623829E-016,
   -1.65354E+000));
#192=VERTEX_POINT('VERTEX597',#191);
#193=CARTESIAN_POINT('POS1059',(1.6256E+000,4.01371174090642E-016,
   -1.65354E+000));
#194=DIRECTION('DIR1527',(1.0E+000,1.22460635382238E-016,
   6.12303176911189E-017));
#195=VECTOR('VEC591',#194,1.0E+000);
#196=LINE('STRAIGHT591',#193,#195);
#197=EDGE_CURVE('EDGE918',#127,#192,#196,.T.);
#198=ORIENTED_EDGE('COEDGE1831',*,*,#197,.T.);
#199=CARTESIAN_POINT('POS1060',(2.82194E+000,3.45576565410552E-016,
   1.72788282705276E-016));
#200=DIRECTION('DIR1528',(-1.0E+000,-1.22460635382238E-016,
   -6.12303176911189E-017));
#201=DIRECTION('DIR1529',(-6.12303176911189E-017,1.17562209966948E-019,
   1.0E+000));
#202=AXIS2_PLACEMENT_3D('AXIS469',#199,#200,#201);
#203=CIRCLE('ELLIPSE186',#202,1.65354E+000);
#204=EDGE_CURVE('EDGE919',#183,#192,#203,.T.);
#205=ORIENTED_EDGE('COEDGE1832',*,*,#204,.F.);
#206=EDGE_LOOP('NONE',(#189,#190,#198,#205));
#207=FACE_BOUND('LOOP1',#206,.T.);
#208=CARTESIAN_POINT('POS1061',(1.6256E+000,1.99072008877366E-016,
   9.95360044386828E-017));
#209=DIRECTION('DIR1530',(-1.0E+000,-1.22460635382238E-016,
   -6.12303176911189E-017));
#210=DIRECTION('DIR1531',(-6.12303176911189E-017,1.17562209966948E-019,
   1.0E+000));
#211=AXIS2_PLACEMENT_3D('AXIS470',#208,#209,#210);
#212=CYLINDRICAL_SURFACE('CONE_SURF83',#211,1.65354E+000);
#213=ADVANCED_FACE('FACE356',(#207),#212,.F.);
#214=ORIENTED_EDGE('COEDGE1833',*,*,#188,.F.);
#215=EDGE_CURVE('EDGE920',#192,#183,#203,.T.);
#216=ORIENTED_EDGE('COEDGE1834',*,*,#215,.F.);
#217=ORIENTED_EDGE('COEDGE1835',*,*,#197,.F.);
#218=ORIENTED_EDGE('COEDGE1836',*,*,#150,.T.);
#219=EDGE_LOOP('NONE',(#214,#216,#217,#218));
#220=FACE_BOUND('LOOP1',#219,.T.);
#221=ADVANCED_FACE('FACE357',(#220),#212,.F.);
#222=CARTESIAN_POINT('POINT598',(9.65199999999999E-001,0.0E+000,
   3.3147E+000));
#223=VERTEX_POINT('VERTEX598',#222);
#224=CARTESIAN_POINT('POS1062',(7.23899999999999E-001,
   -4.05920268101503E-016,3.3147E+000));
#225=DIRECTION('DIR1532',(-1.0E+000,0.0E+000,-1.80411241501588E-016));
#226=VECTOR('VEC592',#225,1.0E+000);
#227=LINE('STRAIGHT592',#224,#226);
#228=EDGE_CURVE('EDGE921',#223,#162,#227,.T.);
#229=ORIENTED_EDGE('COEDGE1837',*,*,#228,.F.);
#230=CARTESIAN_POINT('POINT599',(9.65200000000001E-001,
   4.05920268101503E-016,-3.3147E+000));
#231=VERTEX_POINT('VERTEX599',#230);
#232=CARTESIAN_POINT('POS1063',(9.652E-001,0.0E+000,
   3.91348964699486E-032));
#233=DIRECTION('DIR1533',(1.0E+000,0.0E+000,1.80411241501588E-016));
#234=DIRECTION('DIR1534',(-1.80411241501588E-016,0.0E+000,1.0E+000));
#235=AXIS2_PLACEMENT_3D('AXIS471',#232,#233,#234);
#236=CIRCLE('ELLIPSE187',#235,3.3147E+000);
#237=EDGE_CURVE('EDGE922',#231,#223,#236,.T.);
#238=ORIENTED_EDGE('COEDGE1838',*,*,#237,.F.);
#239=CARTESIAN_POINT('POS1064',(7.23900000000001E-001,
   4.05920268101503E-016,-3.3147E+000));
#240=DIRECTION('DIR1535',(1.0E+000,-0.0E+000,1.80411241501588E-016));
#241=VECTOR('VEC593',#240,1.0E+000);
#242=LINE('STRAIGHT593',#239,#241);
#243=EDGE_CURVE('EDGE923',#164,#231,#242,.T.);
#244=ORIENTED_EDGE('COEDGE1839',*,*,#243,.F.);
#245=ORIENTED_EDGE('COEDGE1840',*,*,#170,.F.);
#246=EDGE_LOOP('NONE',(#229,#238,#244,#245));
#247=FACE_BOUND('LOOP1',#246,.T.);
#248=CARTESIAN_POINT('POS1065',(7.239E-001,0.0E+000,
   -4.35332325743332E-017));
#249=DIRECTION('DIR1536',(-1.0E+000,0.0E+000,-1.80411241501588E-016));
#250=DIRECTION('DIR1537',(-1.80411241501588E-016,0.0E+000,1.0E+000));
#251=AXIS2_PLACEMENT_3D('AXIS472',#248,#249,#250);
#252=CYLINDRICAL_SURFACE('CONE_SURF84',#251,3.3147E+000);
#253=ADVANCED_FACE('FACE358',(#247),#252,.T.);
#254=ORIENTED_EDGE('COEDGE1841',*,*,#228,.T.);
#255=ORIENTED_EDGE('COEDGE1842',*,*,#172,.F.);
#256=ORIENTED_EDGE('COEDGE1843',*,*,#243,.T.);
#257=EDGE_CURVE('EDGE924',#223,#231,#236,.T.);
#258=ORIENTED_EDGE('COEDGE1844',*,*,#257,.F.);
#259=EDGE_LOOP('NONE',(#254,#255,#256,#258));
#260=FACE_BOUND('LOOP1',#259,.T.);
#261=ADVANCED_FACE('FACE359',(#260),#252,.T.);
#262=CARTESIAN_POINT('POINT600',(3.2512E+000,1.43327864951526E-016,
   2.0828E+000));
#263=VERTEX_POINT('VERTEX600',#262);
#264=CARTESIAN_POINT('POS1066',(3.03657E+000,1.43302632574401E-016,
   1.86817E+000));
#265=DIRECTION('DIR1538',(-7.07106781186548E-001,-8.31290358789438E-020,
   -7.07106781186547E-001));
#266=VECTOR('VEC594',#265,1.0E+000);
#267=LINE('STRAIGHT594',#264,#266);
#268=EDGE_CURVE('EDGE925',#263,#183,#267,.T.);
#269=ORIENTED_EDGE('COEDGE1845',*,*,#268,.T.);
#270=ORIENTED_EDGE('COEDGE1846',*,*,#204,.T.);
#271=CARTESIAN_POINT('POINT601',(3.2512E+000,5.97216026632097E-016,
   -2.0828E+000));
#272=VERTEX_POINT('VERTEX601',#271);
#273=CARTESIAN_POINT('POS1067',(3.03657E+000,6.00417950590883E-016,
   -1.86817E+000));
#274=DIRECTION('DIR1539',(7.07106781186548E-001,1.73102362378508E-016,
   -7.07106781186547E-001));
#275=VECTOR('VEC595',#274,1.0E+000);
#276=LINE('STRAIGHT595',#273,#275);
#277=EDGE_CURVE('EDGE926',#192,#272,#276,.T.);
#278=ORIENTED_EDGE('COEDGE1847',*,*,#277,.T.);
#279=CARTESIAN_POINT('POS1068',(3.2512E+000,3.98144017754731E-016,
   1.99072008877366E-016));
#280=DIRECTION('DIR1540',(-1.0E+000,0.0E+000,-6.12303176911189E-017));
#281=DIRECTION('DIR1541',(6.12303176911189E-017,0.0E+000,-1.0E+000));
#282=AXIS2_PLACEMENT_3D('AXIS473',#279,#280,#281);
#283=CIRCLE('ELLIPSE188',#282,2.0828E+000);
#284=EDGE_CURVE('EDGE927',#263,#272,#283,.T.);
#285=ORIENTED_EDGE('COEDGE1848',*,*,#284,.F.);
#286=EDGE_LOOP('NONE',(#269,#270,#278,#285));
#287=FACE_BOUND('LOOP1',#286,.T.);
#288=CARTESIAN_POINT('POS1069',(3.03657E+000,3.71860291582642E-016,
   1.85930145791321E-016));
#289=DIRECTION('DIR1542',(1.0E+000,1.22460635382238E-016,
   6.12303176911189E-017));
#290=DIRECTION('DIR1543',(-6.12303176911189E-017,1.17562209966948E-019,
   1.0E+000));
#291=AXIS2_PLACEMENT_3D('AXIS474',#288,#289,#290);
#292=CONICAL_SURFACE('CONE_SURF85',#291,1.86817E+000,
   7.85398163397448E-001);
#293=ADVANCED_FACE('FACE360',(#287),#292,.F.);
#294=ORIENTED_EDGE('COEDGE1849',*,*,#268,.F.);
#295=EDGE_CURVE('EDGE928',#272,#263,#283,.T.);
#296=ORIENTED_EDGE('COEDGE1850',*,*,#295,.F.);
#297=ORIENTED_EDGE('COEDGE1851',*,*,#277,.F.);
#298=ORIENTED_EDGE('COEDGE1852',*,*,#215,.T.);
#299=EDGE_LOOP('NONE',(#294,#296,#297,#298));
#300=FACE_BOUND('LOOP1',#299,.T.);
#301=ADVANCED_FACE('FACE361',(#300),#292,.F.);
#302=ORIENTED_EDGE('COEDGE1853',*,*,#257,.T.);
#303=ORIENTED_EDGE('COEDGE1854',*,*,#237,.T.);
#304=EDGE_LOOP('NONE',(#302,#303));
#305=FACE_BOUND('LOOP1',#304,.T.);
#306=CARTESIAN_POINT('POINT602',(9.65199999999999E-001,
   -5.90995026354679E-017,3.937E+000));
#307=VERTEX_POINT('VERTEX602',#306);
#308=CARTESIAN_POINT('POINT603',(9.65200000000001E-001,
   4.01787559593358E-015,-3.937E+000));
#309=VERTEX_POINT('VERTEX603',#308);
#310=CARTESIAN_POINT('POS1070',(9.652E-001,0.0E+000,
   1.77298507906404E-016));
#311=DIRECTION('DIR1544',(1.0E+000,0.0E+000,1.83690953073357E-016));
#312=DIRECTION('DIR1545',(-1.83690953073357E-016,-1.14300307783425E-015,
   1.0E+000));
#313=AXIS2_PLACEMENT_3D('AXIS475',#310,#311,#312);
#314=CIRCLE('ELLIPSE189',#313,3.937E+000);
#315=EDGE_CURVE('EDGE929',#307,#309,#314,.T.);
#316=ORIENTED_EDGE('COEDGE1855',*,*,#315,.F.);
#317=EDGE_CURVE('EDGE930',#309,#307,#314,.T.);
#318=ORIENTED_EDGE('COEDGE1856',*,*,#317,.F.);
#319=EDGE_LOOP('NONE',(#316,#318));
#320=FACE_BOUND('LOOP1',#319,.T.);
#321=CARTESIAN_POINT('POS1071',(9.652E-001,-5.90995026354679E-017,
   1.9685E+000));
#322=DIRECTION('DIR1546',(-1.0E+000,0.0E+000,-1.83690953073357E-016));
#323=DIRECTION('DIR1547',(0.0E+000,1.0E+000,0.0E+000));
#324=AXIS2_PLACEMENT_3D('AXIS476',#321,#322,#323);
#325=PLANE('PLANE198',#324);
#326=ADVANCED_FACE('FACE362',(#305,#320),#325,.T.);
#327=CARTESIAN_POINT('POINT604',(2.8702E+000,-1.75743257837049E-016,
   3.937E+000));
#328=VERTEX_POINT('VERTEX604',#327);
#329=CARTESIAN_POINT('POS1072',(1.9177E+000,-4.01787559593358E-015,
   3.937E+000));
#330=DIRECTION('DIR1548',(1.0E+000,0.0E+000,1.83690953073357E-016));
#331=VECTOR('VEC596',#330,1.0E+000);
#332=LINE('STRAIGHT596',#329,#331);
#333=EDGE_CURVE('EDGE931',#307,#328,#332,.T.);
#334=ORIENTED_EDGE('COEDGE1857',*,*,#333,.T.);
#335=CARTESIAN_POINT('POINT605',(2.8702E+000,4.01787559593358E-015,
   -3.937E+000));
#336=VERTEX_POINT('VERTEX605',#335);
#337=CARTESIAN_POINT('POS1073',(2.8702E+000,0.0E+000,
   5.27229773511148E-016));
#338=DIRECTION('DIR1549',(1.0E+000,0.0E+000,1.83690953073357E-016));
#339=DIRECTION('DIR1550',(-1.83690953073357E-016,-1.14300307783425E-015,
   1.0E+000));
#340=AXIS2_PLACEMENT_3D('AXIS477',#337,#338,#339);
#341=CIRCLE('ELLIPSE190',#340,3.937E+000);
#342=EDGE_CURVE('EDGE932',#336,#328,#341,.T.);
#343=ORIENTED_EDGE('COEDGE1858',*,*,#342,.F.);
#344=CARTESIAN_POINT('POS1074',(1.9177E+000,4.01787559593358E-015,
   -3.937E+000));
#345=DIRECTION('DIR1551',(-1.0E+000,-0.0E+000,-1.83690953073357E-016));
#346=VECTOR('VEC597',#345,1.0E+000);
#347=LINE('STRAIGHT597',#344,#346);
#348=EDGE_CURVE('EDGE933',#336,#309,#347,.T.);
#349=ORIENTED_EDGE('COEDGE1859',*,*,#348,.T.);
#350=ORIENTED_EDGE('COEDGE1860',*,*,#317,.T.);
#351=EDGE_LOOP('NONE',(#334,#343,#349,#350));
#352=FACE_BOUND('LOOP1',#351,.T.);
#353=CARTESIAN_POINT('POS1075',(1.9177E+000,0.0E+000,
   3.52264140708776E-016));
#354=DIRECTION('DIR1552',(1.0E+000,0.0E+000,1.83690953073357E-016));
#355=DIRECTION('DIR1553',(-1.83690953073357E-016,-1.14300307783425E-015,
   1.0E+000));
#356=AXIS2_PLACEMENT_3D('AXIS478',#353,#354,#355);
#357=CYLINDRICAL_SURFACE('CONE_SURF86',#356,3.937E+000);
#358=ADVANCED_FACE('FACE363',(#352),#357,.T.);
#359=ORIENTED_EDGE('COEDGE1861',*,*,#295,.T.);
#360=ORIENTED_EDGE('COEDGE1862',*,*,#284,.T.);
#361=EDGE_LOOP('NONE',(#359,#360));
#362=FACE_BOUND('LOOP1',#361,.T.);
#363=CARTESIAN_POINT('POINT606',(3.2512E+000,-1.99072008877366E-016,
   3.556E+000));
#364=VERTEX_POINT('VERTEX606',#363);
#365=CARTESIAN_POINT('POINT607',(3.2512E+000,3.62904892535936E-015,
   -3.556E+000));
#366=VERTEX_POINT('VERTEX607',#365);
#367=CARTESIAN_POINT('POS1076',(3.2512E+000,0.0E+000,
   5.97216026632097E-016));
#368=DIRECTION('DIR1554',(1.0E+000,4.37905770101505E-047,
   1.83690953073357E-016));
#369=DIRECTION('DIR1555',(-1.83690953073357E-016,-1.14300307783425E-015,
   1.0E+000));
#370=AXIS2_PLACEMENT_3D('AXIS479',#367,#368,#369);
#371=CIRCLE('ELLIPSE191',#370,3.556E+000);
#372=EDGE_CURVE('EDGE934',#364,#366,#371,.T.);
#373=ORIENTED_EDGE('COEDGE1863',*,*,#372,.T.);
#374=EDGE_CURVE('EDGE935',#366,#364,#371,.T.);
#375=ORIENTED_EDGE('COEDGE1864',*,*,#374,.T.);
#376=EDGE_LOOP('NONE',(#373,#375));
#377=FACE_BOUND('LOOP1',#376,.T.);
#378=CARTESIAN_POINT('POS1077',(3.2512E+000,-1.99072008877366E-016,
   1.778E+000));
#379=DIRECTION('DIR1556',(1.0E+000,0.0E+000,1.83690953073357E-016));
#380=DIRECTION('DIR1557',(0.0E+000,1.0E+000,0.0E+000));
#381=AXIS2_PLACEMENT_3D('AXIS480',#378,#379,#380);
#382=PLANE('PLANE199',#381);
#383=ADVANCED_FACE('FACE364',(#362,#377),#382,.T.);
#384=ORIENTED_EDGE('COEDGE1865',*,*,#333,.F.);
#385=ORIENTED_EDGE('COEDGE1866',*,*,#315,.T.);
#386=ORIENTED_EDGE('COEDGE1867',*,*,#348,.F.);
#387=EDGE_CURVE('EDGE936',#328,#336,#341,.T.);
#388=ORIENTED_EDGE('COEDGE1868',*,*,#387,.F.);
#389=EDGE_LOOP('NONE',(#384,#385,#386,#388));
#390=FACE_BOUND('LOOP1',#389,.T.);
#391=ADVANCED_FACE('FACE365',(#390),#357,.T.);
#392=CARTESIAN_POINT('POS1078',(3.0607E+000,-3.82346226064647E-015,
   3.7465E+000));
#393=DIRECTION('DIR1558',(7.07106781186548E-001,7.21632481546501E-016,
   -7.07106781186547E-001));
#394=VECTOR('VEC598',#393,1.0E+000);
#395=LINE('STRAIGHT598',#392,#394);
#396=EDGE_CURVE('EDGE937',#328,#364,#395,.T.);
#397=ORIENTED_EDGE('COEDGE1869',*,*,#396,.T.);
#398=ORIENTED_EDGE('COEDGE1870',*,*,#374,.F.);
#399=CARTESIAN_POINT('POS1079',(3.0607E+000,3.82346226064647E-015,
   -3.7465E+000));
#400=DIRECTION('DIR1559',(-7.07106781186548E-001,7.21632481546501E-016,
   -7.07106781186547E-001));
#401=VECTOR('VEC599',#400,1.0E+000);
#402=LINE('STRAIGHT599',#399,#401);
#403=EDGE_CURVE('EDGE938',#366,#336,#402,.T.);
#404=ORIENTED_EDGE('COEDGE1871',*,*,#403,.T.);
#405=ORIENTED_EDGE('COEDGE1872',*,*,#342,.T.);
#406=EDGE_LOOP('NONE',(#397,#398,#404,#405));
#407=FACE_BOUND('LOOP1',#406,.T.);
#408=CARTESIAN_POINT('POS1080',(3.0607E+000,0.0E+000,
   5.62222900071622E-016));
#409=DIRECTION('DIR1560',(-1.0E+000,0.0E+000,-1.83690953073357E-016));
#410=DIRECTION('DIR1561',(-1.83690953073357E-016,-1.14300307783425E-015,
   1.0E+000));
#411=AXIS2_PLACEMENT_3D('AXIS481',#408,#409,#410);
#412=CONICAL_SURFACE('CONE_SURF87',#411,3.7465E+000,
   7.85398163397448E-001);
#413=ADVANCED_FACE('FACE366',(#407),#412,.T.);
#414=ORIENTED_EDGE('COEDGE1873',*,*,#396,.F.);
#415=ORIENTED_EDGE('COEDGE1874',*,*,#387,.T.);
#416=ORIENTED_EDGE('COEDGE1875',*,*,#403,.F.);
#417=ORIENTED_EDGE('COEDGE1876',*,*,#372,.F.);
#418=EDGE_LOOP('NONE',(#414,#415,#416,#417));
#419=FACE_BOUND('LOOP1',#418,.T.);
#420=ADVANCED_FACE('FACE367',(#419),#412,.T.);
#421=CLOSED_SHELL('SHELL6',(#42,#51,#76,#108,#116,#148,#156,#181,#213,
   #221,#253,#261,#293,#301,#326,#358,#383,#391,#413,#420));
#422=MANIFOLD_SOLID_BREP('LUMP6',#421);
#423=ADVANCED_BREP_SHAPE_REPRESENTATION('BODY5',(#422),#424);
#424=(GEOMETRIC_REPRESENTATION_CONTEXT(3) 
   GLOBAL_UNCERTAINTY_ASSIGNED_CONTEXT((#425)) 
   GLOBAL_UNIT_ASSIGNED_CONTEXT((#426,#427,#428)) REPRESENTATION_CONTEXT
   ('',''));
#425=UNCERTAINTY_MEASURE_WITH_UNIT(LENGTH_MEASURE(1.0E-006),#426,'','');
#426=(LENGTH_UNIT() NAMED_UNIT(*) SI_UNIT(.MILLI.,.METRE.));
#427=(NAMED_UNIT(*) PLANE_ANGLE_UNIT() SI_UNIT($,.RADIAN.));
#428=(NAMED_UNIT(*) SI_UNIT($,.STERADIAN.) SOLID_ANGLE_UNIT());
#429=APPLICATION_CONTEXT(
   'CONFIGURATION CONTROLLED 3D DESIGNS OF MECHANICAL PARTS AND 
ASSEMBLIES');
#430=APPLICATION_PROTOCOL_DEFINITION('INTERNATIONAL STANDARD',
   'config_control_design',1994,#429);
#431=MECHANICAL_CONTEXT('MECHANICAL_CONTEXT_NAME',#429,'mechanical');
#432=PRODUCT('PRODUCT_ID_6','PRODUCT_NAME_6','PRODUCT_DESCRIPTION',(#431
   ));
#433=PRODUCT_RELATED_PRODUCT_CATEGORY('detail',
   'PRODUCT_RELATED_PRODUCT_CATEGORY_DESCRIPTION',(#432));
#434=PERSON_AND_ORGANIZATION_ROLE('design_owner');
#435=CC_DESIGN_PERSON_AND_ORGANIZATION_ASSIGNMENT(#438,#434,(#432));
#436=PERSON('ID_41','PERSON_LAST_NAME','PERSON_FIRST_NAME',$,$,$);
#437=ORGANIZATION('ORGANIZATION_ID','ORGANIZATION_NAME',
   'ORGANIZATION_DESCRIPTION');
#438=PERSON_AND_ORGANIZATION(#436,#437);
#439=PRODUCT_DEFINITION_FORMATION_WITH_SPECIFIED_SOURCE(
   'PRODUCT_DEFINITION_FORMATION_ID',
   'PRODUCT_DEFINITION_FORMATION_DESCRIPTION',#432,.NOT_KNOWN.);
#440=PERSON_AND_ORGANIZATION_ROLE('creator');
#441=CC_DESIGN_PERSON_AND_ORGANIZATION_ASSIGNMENT(#444,#440,(#439));
#442=PERSON('ID_42','PERSON_LAST_NAME','PERSON_FIRST_NAME',$,$,$);
#443=ORGANIZATION('ORGANIZATION_ID','ORGANIZATION_NAME',
   'ORGANIZATION_DESCRIPTION');
#444=PERSON_AND_ORGANIZATION(#442,#443);
#445=PERSON_AND_ORGANIZATION_ROLE('part_supplier');
#446=CC_DESIGN_PERSON_AND_ORGANIZATION_ASSIGNMENT(#449,#445,(#439));
#447=PERSON('ID_43','PERSON_LAST_NAME','PERSON_FIRST_NAME',$,$,$);
#448=ORGANIZATION('ORGANIZATION_ID','ORGANIZATION_NAME',
   'ORGANIZATION_DESCRIPTION');
#449=PERSON_AND_ORGANIZATION(#447,#448);
#450=APPROVAL_STATUS('approved');
#451=APPROVAL(#450,'APPROVAL_LEVEL');
#452=CC_DESIGN_APPROVAL(#451,(#439));
#453=APPROVAL_ROLE('APPROVAL_ROLE');
#454=APPROVAL_PERSON_ORGANIZATION(#457,#451,#453);
#455=PERSON('ID_44','PERSON_LAST_NAME','PERSON_FIRST_NAME',$,$,$);
#456=ORGANIZATION('ORGANIZATION_ID','ORGANIZATION_NAME',
   'ORGANIZATION_DESCRIPTION');
#457=PERSON_AND_ORGANIZATION(#455,#456);
#458=APPROVAL_DATE_TIME(#462,#451);
#459=CALENDAR_DATE(1997,1,1);
#460=COORDINATED_UNIVERSAL_TIME_OFFSET(0,0,.AHEAD.);
#461=LOCAL_TIME(0,0,0.0E+000,#460);
#462=DATE_AND_TIME(#459,#461);
#463=SECURITY_CLASSIFICATION_LEVEL('classified');
#464=SECURITY_CLASSIFICATION('SECURITY_CLASSIFICATION_NAME',
   'SECURITY_CLASSIFICATION_PURPOSE',#463);
#465=CC_DESIGN_SECURITY_CLASSIFICATION(#464,(#439));
#466=APPROVAL_STATUS('approved');
#467=APPROVAL(#466,'APPROVAL_LEVEL');
#468=CC_DESIGN_APPROVAL(#467,(#464));
#469=APPROVAL_ROLE('APPROVAL_ROLE');
#470=APPROVAL_PERSON_ORGANIZATION(#473,#467,#469);
#471=PERSON('ID_45','PERSON_LAST_NAME','PERSON_FIRST_NAME',$,$,$);
#472=ORGANIZATION('ORGANIZATION_ID','ORGANIZATION_NAME',
   'ORGANIZATION_DESCRIPTION');
#473=PERSON_AND_ORGANIZATION(#471,#472);
#474=APPROVAL_DATE_TIME(#478,#467);
#475=CALENDAR_DATE(1997,1,1);
#476=COORDINATED_UNIVERSAL_TIME_OFFSET(0,0,.AHEAD.);
#477=LOCAL_TIME(0,0,0.0E+000,#476);
#478=DATE_AND_TIME(#475,#477);
#479=PERSON_AND_ORGANIZATION_ROLE('classification_officer');
#480=CC_DESIGN_PERSON_AND_ORGANIZATION_ASSIGNMENT(#483,#479,(#464));
#481=PERSON('ID_46','PERSON_LAST_NAME','PERSON_FIRST_NAME',$,$,$);
#482=ORGANIZATION('ORGANIZATION_ID','ORGANIZATION_NAME',
   'ORGANIZATION_DESCRIPTION');
#483=PERSON_AND_ORGANIZATION(#481,#482);
#484=DATE_TIME_ROLE('classification_date');
#485=CC_DESIGN_DATE_AND_TIME_ASSIGNMENT(#489,#484,(#464));
#486=CALENDAR_DATE(1997,1,1);
#487=COORDINATED_UNIVERSAL_TIME_OFFSET(0,0,.AHEAD.);
#488=LOCAL_TIME(0,0,0.0E+000,#487);
#489=DATE_AND_TIME(#486,#488);
#490=DESIGN_CONTEXT('DESIGN_CONTEXT_NAME',#429,'design');
#491=PRODUCT_DEFINITION('PRODUCT_DEFINITION_ID',
   'PRODUCT_DEFINITION_DESCRIPTION',#439,#490);
#492=PERSON_AND_ORGANIZATION_ROLE('creator');
#493=CC_DESIGN_PERSON_AND_ORGANIZATION_ASSIGNMENT(#496,#492,(#491));
#494=PERSON('ID_47','PERSON_LAST_NAME','PERSON_FIRST_NAME',$,$,$);
#495=ORGANIZATION('ORGANIZATION_ID','ORGANIZATION_NAME',
   'ORGANIZATION_DESCRIPTION');
#496=PERSON_AND_ORGANIZATION(#494,#495);
#497=DATE_TIME_ROLE('creation_date');
#498=CC_DESIGN_DATE_AND_TIME_ASSIGNMENT(#502,#497,(#491));
#499=CALENDAR_DATE(1997,1,1);
#500=COORDINATED_UNIVERSAL_TIME_OFFSET(0,0,.AHEAD.);
#501=LOCAL_TIME(0,0,0.0E+000,#500);
#502=DATE_AND_TIME(#499,#501);
#503=APPROVAL_STATUS('approved');
#504=APPROVAL(#503,'APPROVAL_LEVEL');
#505=CC_DESIGN_APPROVAL(#504,(#491));
#506=APPROVAL_ROLE('APPROVAL_ROLE');
#507=APPROVAL_PERSON_ORGANIZATION(#510,#504,#506);
#508=PERSON('ID_48','PERSON_LAST_NAME','PERSON_FIRST_NAME',$,$,$);
#509=ORGANIZATION('ORGANIZATION_ID','ORGANIZATION_NAME',
   'ORGANIZATION_DESCRIPTION');
#510=PERSON_AND_ORGANIZATION(#508,#509);
#511=APPROVAL_DATE_TIME(#515,#504);
#512=CALENDAR_DATE(1997,1,1);
#513=COORDINATED_UNIVERSAL_TIME_OFFSET(0,0,.AHEAD.);
#514=LOCAL_TIME(0,0,0.0E+000,#513);
#515=DATE_AND_TIME(#512,#514);
#516=PRODUCT_DEFINITION_SHAPE('PRODUCT_DEFINITION_SHAPE_NAME',
   'PRODUCT_DEFINITION_SHAPE_DESCRIPTION',#491);
#517=SHAPE_DEFINITION_REPRESENTATION(#516,#423);
ENDSEC;
END-ISO-10303-21;
                
                  
               
                   
                    
     
                
