ISO-10303-21;
HEADER;
FILE_DESCRIPTION(('starvars output'),'2;1');
FILE_NAME('cv20120701154013000001073.stp','15:40:13   2012/07/01',(
   'Thomas Industrial Network Germany GmbH'),(
   'Thomas Industrial Network Germany GmbH'),'unknown preprocess','ACIS'
   ,'unknown authorization');
FILE_SCHEMA(('CONFIG_CONTROL_DESIGN {UNKNOWN IMPLEMENTATION LEVEL}'));
ENDSEC;
/* ISO 10303-21 file written by STEP Caselib, ProSTEP GmbH, Germany */
DATA;
#1=CARTESIAN_POINT('POINT78',(-5.80885900903875E-016,0.0E+000,
   3.1623E+000));
#2=VERTEX_POINT('VERTEX78',#1);
#3=CARTESIAN_POINT('POINT79',(1.75846153846153E-001,
   -1.07671158647614E-017,3.1623E+000));
#4=VERTEX_POINT('VERTEX79',#3);
#5=CARTESIAN_POINT('POS122',(8.79230769230763E-002,
   -6.12995441797356E-016,3.1623E+000));
#6=DIRECTION('DIR191',(1.0E+000,0.0E+000,1.83690953073357E-016));
#7=VECTOR('VEC53',#6,1.0E+000);
#8=LINE('STRAIGHT53',#5,#7);
#9=EDGE_CURVE('EDGE121',#2,#4,#8,.T.);
#10=ORIENTED_EDGE('COEDGE241',*,*,#9,.F.);
#11=CARTESIAN_POINT('POINT80',(5.80885900903875E-016,
   6.12995441797356E-016,-3.1623E+000));
#12=VERTEX_POINT('VERTEX80',#11);
#13=CARTESIAN_POINT('POS123',(0.0E+000,0.0E+000,0.0E+000));
#14=DIRECTION('DIR192',(1.0E+000,0.0E+000,1.83690953073357E-016));
#15=DIRECTION('DIR193',(-1.83690953073357E-016,-3.16305445108499E-016,
   1.0E+000));
#16=AXIS2_PLACEMENT_3D('AXIS70',#13,#14,#15);
#17=CIRCLE('ELLIPSE36',#16,3.1623E+000);
#18=EDGE_CURVE('EDGE122',#2,#12,#17,.T.);
#19=ORIENTED_EDGE('COEDGE242',*,*,#18,.T.);
#20=CARTESIAN_POINT('POINT81',(1.75846153846154E-001,
   6.12995441797356E-016,-3.1623E+000));
#21=VERTEX_POINT('VERTEX81',#20);
#22=CARTESIAN_POINT('POS124',(8.79230769230775E-002,
   6.12995441797356E-016,-3.1623E+000));
#23=DIRECTION('DIR194',(-1.0E+000,-0.0E+000,-1.83690953073357E-016));
#24=VECTOR('VEC54',#23,1.0E+000);
#25=LINE('STRAIGHT54',#22,#24);
#26=EDGE_CURVE('EDGE123',#21,#12,#25,.T.);
#27=ORIENTED_EDGE('COEDGE243',*,*,#26,.F.);
#28=CARTESIAN_POINT('POS125',(1.75846153846154E-001,0.0E+000,
   3.23013475942841E-017));
#29=DIRECTION('DIR195',(1.0E+000,0.0E+000,1.83690953073357E-016));
#30=DIRECTION('DIR196',(-1.83690953073357E-016,-3.16305445108499E-016,
   1.0E+000));
#31=AXIS2_PLACEMENT_3D('AXIS71',#28,#29,#30);
#32=CIRCLE('ELLIPSE37',#31,3.1623E+000);
#33=EDGE_CURVE('EDGE124',#4,#21,#32,.T.);
#34=ORIENTED_EDGE('COEDGE244',*,*,#33,.F.);
#35=EDGE_LOOP('NONE',(#10,#19,#27,#34));
#36=FACE_BOUND('LOOP1',#35,.T.);
#37=CARTESIAN_POINT('POS126',(8.79230769230769E-002,0.0E+000,
   1.6150673797142E-017));
#38=DIRECTION('DIR197',(1.0E+000,0.0E+000,1.83690953073357E-016));
#39=DIRECTION('DIR198',(-1.83690953073357E-016,-3.16305445108499E-016,
   1.0E+000));
#40=AXIS2_PLACEMENT_3D('AXIS72',#37,#38,#39);
#41=CYLINDRICAL_SURFACE('CONE_SURF15',#40,3.1623E+000);
#42=ADVANCED_FACE('FACE60',(#36),#41,.T.);
#43=ORIENTED_EDGE('COEDGE245',*,*,#9,.T.);
#44=EDGE_CURVE('EDGE125',#21,#4,#32,.T.);
#45=ORIENTED_EDGE('COEDGE246',*,*,#44,.F.);
#46=ORIENTED_EDGE('COEDGE247',*,*,#26,.T.);
#47=EDGE_CURVE('EDGE126',#12,#2,#17,.T.);
#48=ORIENTED_EDGE('COEDGE248',*,*,#47,.T.);
#49=EDGE_LOOP('NONE',(#43,#45,#46,#48));
#50=FACE_BOUND('LOOP1',#49,.T.);
#51=ADVANCED_FACE('FACE61',(#50),#41,.T.);
#52=CARTESIAN_POINT('POINT82',(1.4774875658867E-016,0.0E+000,-2.413E+000
   ));
#53=VERTEX_POINT('VERTEX82',#52);
#54=CARTESIAN_POINT('POINT83',(-6.09779723459783E-016,
   -2.95267958267103E-016,2.413E+000));
#55=VERTEX_POINT('VERTEX83',#54);
#56=CARTESIAN_POINT('POS127',(-1.76247905159244E-016,
   -3.91348964699486E-032,-1.95674482349743E-032));
#57=DIRECTION('DIR199',(1.0E+000,0.0E+000,6.12303176911189E-017));
#58=DIRECTION('DIR200',(6.12303176911189E-017,0.0E+000,-1.0E+000));
#59=AXIS2_PLACEMENT_3D('AXIS73',#56,#57,#58);
#60=CIRCLE('ELLIPSE38',#59,2.413E+000);
#61=EDGE_CURVE('EDGE127',#53,#55,#60,.T.);
#62=ORIENTED_EDGE('COEDGE249',*,*,#61,.T.);
#63=EDGE_CURVE('EDGE128',#55,#53,#60,.T.);
#64=ORIENTED_EDGE('COEDGE250',*,*,#63,.T.);
#65=EDGE_LOOP('NONE',(#62,#64));
#66=FACE_BOUND('LOOP1',#65,.T.);
#67=ORIENTED_EDGE('COEDGE251',*,*,#18,.F.);
#68=ORIENTED_EDGE('COEDGE252',*,*,#47,.F.);
#69=EDGE_LOOP('NONE',(#67,#68));
#70=FACE_BOUND('LOOP1',#69,.T.);
#71=CARTESIAN_POINT('POS128',(-2.90442950451938E-016,0.0E+000,
   1.58115E+000));
#72=DIRECTION('DIR201',(-1.0E+000,0.0E+000,-1.83690953073357E-016));
#73=DIRECTION('DIR202',(0.0E+000,1.0E+000,0.0E+000));
#74=AXIS2_PLACEMENT_3D('AXIS74',#71,#72,#73);
#75=PLANE('PLANE20',#74);
#76=ADVANCED_FACE('FACE62',(#66,#70),#75,.T.);
#77=CARTESIAN_POINT('POINT84',(3.80999999999999E-001,
   -6.02778851100733E-016,3.109595E+000));
#78=VERTEX_POINT('VERTEX84',#77);
#79=CARTESIAN_POINT('POS129',(4.68923076923076E-001,
   -5.98400312230752E-016,3.08700714285714E+000));
#80=DIRECTION('DIR203',(9.68548529529114E-001,4.82333823202814E-017,
   -2.48824729371884E-001));
#81=VECTOR('VEC55',#80,1.0E+000);
#82=LINE('STRAIGHT55',#79,#81);
#83=EDGE_CURVE('EDGE129',#4,#78,#82,.T.);
#84=ORIENTED_EDGE('COEDGE253',*,*,#83,.F.);
#85=ORIENTED_EDGE('COEDGE254',*,*,#33,.T.);
#86=CARTESIAN_POINT('POINT85',(3.81000000000001E-001,
   1.36438481006359E-015,-3.109595E+000));
#87=VERTEX_POINT('VERTEX85',#86);
#88=CARTESIAN_POINT('POS130',(4.68923076923077E-001,
   5.98400312230752E-016,-3.08700714285714E+000));
#89=DIRECTION('DIR204',(-9.68548529529114E-001,4.82333823202814E-017,
   -2.48824729371885E-001));
#90=VECTOR('VEC56',#89,1.0E+000);
#91=LINE('STRAIGHT56',#88,#90);
#92=EDGE_CURVE('EDGE130',#87,#21,#91,.T.);
#93=ORIENTED_EDGE('COEDGE255',*,*,#92,.F.);
#94=CARTESIAN_POINT('POS131',(3.81E-001,0.0E+000,6.99862531209489E-017))
   ;
#95=DIRECTION('DIR205',(1.0E+000,6.00143338822446E-035,
   1.83690953073357E-016));
#96=DIRECTION('DIR206',(-1.83690953073357E-016,-3.16305445108499E-016,
   1.0E+000));
#97=AXIS2_PLACEMENT_3D('AXIS75',#94,#95,#96);
#98=CIRCLE('ELLIPSE39',#97,3.109595E+000);
#99=EDGE_CURVE('EDGE131',#78,#87,#98,.T.);
#100=ORIENTED_EDGE('COEDGE256',*,*,#99,.F.);
#101=EDGE_LOOP('NONE',(#84,#85,#93,#100));
#102=FACE_BOUND('LOOP1',#101,.T.);
#103=CARTESIAN_POINT('POS132',(4.68923076923077E-001,0.0E+000,
   8.61369269180909E-017));
#104=DIRECTION('DIR207',(-1.0E+000,0.0E+000,-1.83690953073357E-016));
#105=DIRECTION('DIR208',(-1.83690953073357E-016,-3.16305445108499E-016,
   1.0E+000));
#106=AXIS2_PLACEMENT_3D('AXIS76',#103,#104,#105);
#107=CONICAL_SURFACE('CONE_SURF16',#106,3.08700714285714E+000,
   2.51466630707348E-001);
#108=ADVANCED_FACE('FACE63',(#102),#107,.T.);
#109=ORIENTED_EDGE('COEDGE257',*,*,#83,.T.);
#110=EDGE_CURVE('EDGE132',#87,#78,#98,.T.);
#111=ORIENTED_EDGE('COEDGE258',*,*,#110,.F.);
#112=ORIENTED_EDGE('COEDGE259',*,*,#92,.T.);
#113=ORIENTED_EDGE('COEDGE260',*,*,#44,.T.);
#114=EDGE_LOOP('NONE',(#109,#111,#112,#113));
#115=FACE_BOUND('LOOP1',#114,.T.);
#116=ADVANCED_FACE('FACE64',(#115),#107,.T.);
#117=CARTESIAN_POINT('POINT86',(4.2926E-001,7.8851178516269E-017,
   1.98374E+000));
#118=VERTEX_POINT('VERTEX86',#117);
#119=CARTESIAN_POINT('POS133',(2.1463E-001,-2.42720924228097E-016,
   2.19837E+000));
#120=DIRECTION('DIR209',(-7.07106781186548E-001,-1.73118222523511E-016,
   7.07106781186548E-001));
#121=VECTOR('VEC57',#120,1.0E+000);
#122=LINE('STRAIGHT57',#119,#121);
#123=EDGE_CURVE('EDGE133',#118,#55,#122,.T.);
#124=ORIENTED_EDGE('COEDGE261',*,*,#123,.T.);
#125=ORIENTED_EDGE('COEDGE262',*,*,#61,.F.);
#126=CARTESIAN_POINT('POINT87',(4.2926E-001,2.9530879487745E-016,
   -1.98374E+000));
#127=VERTEX_POINT('VERTEX87',#126);
#128=CARTESIAN_POINT('POS134',(2.1463E-001,2.95288376572277E-016,
   -2.19837E+000));
#129=DIRECTION('DIR210',(7.07106781186548E-001,6.7268890875696E-020,
   7.07106781186548E-001));
#130=VECTOR('VEC58',#129,1.0E+000);
#131=LINE('STRAIGHT58',#128,#130);
#132=EDGE_CURVE('EDGE134',#53,#127,#131,.T.);
#133=ORIENTED_EDGE('COEDGE263',*,*,#132,.T.);
#134=CARTESIAN_POINT('POS135',(4.2926E-001,5.25674523441794E-017,
   2.62837261720897E-017));
#135=DIRECTION('DIR211',(-1.0E+000,-1.22460635382238E-016,
   -6.12303176911189E-017));
#136=DIRECTION('DIR212',(-6.12303176911189E-017,9.51325778022015E-020,
   1.0E+000));
#137=AXIS2_PLACEMENT_3D('AXIS77',#134,#135,#136);
#138=CIRCLE('ELLIPSE40',#137,1.98374E+000);
#139=EDGE_CURVE('EDGE135',#118,#127,#138,.T.);
#140=ORIENTED_EDGE('COEDGE264',*,*,#139,.F.);
#141=EDGE_LOOP('NONE',(#124,#125,#133,#140));
#142=FACE_BOUND('LOOP1',#141,.T.);
#143=CARTESIAN_POINT('POS136',(2.1463E-001,2.62837261720897E-017,
   1.31418630860448E-017));
#144=DIRECTION('DIR213',(-1.0E+000,-1.22460635382238E-016,
   -6.12303176911189E-017));
#145=DIRECTION('DIR214',(-6.12303176911189E-017,9.51325778022015E-020,
   1.0E+000));
#146=AXIS2_PLACEMENT_3D('AXIS78',#143,#144,#145);
#147=CONICAL_SURFACE('CONE_SURF17',#146,2.19837E+000,
   7.85398163397448E-001);
#148=ADVANCED_FACE('FACE65',(#142),#147,.F.);
#149=ORIENTED_EDGE('COEDGE265',*,*,#123,.F.);
#150=EDGE_CURVE('EDGE136',#127,#118,#138,.T.);
#151=ORIENTED_EDGE('COEDGE266',*,*,#150,.F.);
#152=ORIENTED_EDGE('COEDGE267',*,*,#132,.F.);
#153=ORIENTED_EDGE('COEDGE268',*,*,#63,.F.);
#154=EDGE_LOOP('NONE',(#149,#151,#152,#153));
#155=FACE_BOUND('LOOP1',#154,.T.);
#156=ADVANCED_FACE('FACE66',(#155),#147,.F.);
#157=ORIENTED_EDGE('COEDGE269',*,*,#110,.T.);
#158=ORIENTED_EDGE('COEDGE270',*,*,#99,.T.);
#159=EDGE_LOOP('NONE',(#157,#158));
#160=FACE_BOUND('LOOP1',#159,.T.);
#161=CARTESIAN_POINT('POINT88',(3.80999999999999E-001,0.0E+000,
   3.74015E+000));
#162=VERTEX_POINT('VERTEX88',#161);
#163=CARTESIAN_POINT('POINT89',(3.81000000000001E-001,
   4.58021145424876E-016,-3.74015E+000));
#164=VERTEX_POINT('VERTEX89',#163);
#165=CARTESIAN_POINT('POS137',(3.81E-001,0.0E+000,-7.00585423007993E-017
   ));
#166=DIRECTION('DIR215',(-1.0E+000,0.0E+000,-1.83880688453542E-016));
#167=DIRECTION('DIR216',(-1.83880688453542E-016,0.0E+000,1.0E+000));
#168=AXIS2_PLACEMENT_3D('AXIS79',#165,#166,#167);
#169=CIRCLE('ELLIPSE41',#168,3.74015E+000);
#170=EDGE_CURVE('EDGE137',#162,#164,#169,.T.);
#171=ORIENTED_EDGE('COEDGE271',*,*,#170,.T.);
#172=EDGE_CURVE('EDGE138',#164,#162,#169,.T.);
#173=ORIENTED_EDGE('COEDGE272',*,*,#172,.T.);
#174=EDGE_LOOP('NONE',(#171,#173));
#175=FACE_BOUND('LOOP1',#174,.T.);
#176=CARTESIAN_POINT('POS138',(3.81E-001,0.0E+000,-7.00585423007993E-017
   ));
#177=DIRECTION('DIR217',(-1.0E+000,0.0E+000,-1.83880688453542E-016));
#178=DIRECTION('DIR218',(0.0E+000,1.0E+000,0.0E+000));
#179=AXIS2_PLACEMENT_3D('AXIS80',#176,#177,#178);
#180=PLANE('PLANE21',#179);
#181=ADVANCED_FACE('FACE67',(#160,#175),#180,.T.);
#182=CARTESIAN_POINT('POINT90',(2.61874E+000,4.81038846451322E-016,
   1.98374E+000));
#183=VERTEX_POINT('VERTEX90',#182);
#184=CARTESIAN_POINT('POS139',(1.524E+000,-5.61113342107407E-017,
   1.98374E+000));
#185=DIRECTION('DIR219',(-1.0E+000,-1.22460635382238E-016,
   -6.12303176911189E-017));
#186=VECTOR('VEC59',#185,1.0E+000);
#187=LINE('STRAIGHT59',#184,#186);
#188=EDGE_CURVE('EDGE139',#183,#118,#187,.T.);
#189=ORIENTED_EDGE('COEDGE273',*,*,#188,.T.);
#190=ORIENTED_EDGE('COEDGE274',*,*,#139,.T.);
#191=CARTESIAN_POINT('POINT91',(2.61874E+000,5.63433906834152E-016,
   -1.98374E+000));
#192=VERTEX_POINT('VERTEX91',#191);
#193=CARTESIAN_POINT('POS140',(1.524E+000,4.29371350855801E-016,
   -1.98374E+000));
#194=DIRECTION('DIR220',(1.0E+000,1.22460635382238E-016,
   6.12303176911189E-017));
#195=VECTOR('VEC60',#194,1.0E+000);
#196=LINE('STRAIGHT60',#193,#195);
#197=EDGE_CURVE('EDGE140',#127,#192,#196,.T.);
#198=ORIENTED_EDGE('COEDGE275',*,*,#197,.T.);
#199=CARTESIAN_POINT('POS141',(2.61874E+000,3.20692564300881E-016,
   1.60346282150441E-016));
#200=DIRECTION('DIR221',(-1.0E+000,-1.22460635382238E-016,
   -6.12303176911189E-017));
#201=DIRECTION('DIR222',(-6.12303176911189E-017,9.51325778022015E-020,
   1.0E+000));
#202=AXIS2_PLACEMENT_3D('AXIS81',#199,#200,#201);
#203=CIRCLE('ELLIPSE42',#202,1.98374E+000);
#204=EDGE_CURVE('EDGE141',#183,#192,#203,.T.);
#205=ORIENTED_EDGE('COEDGE276',*,*,#204,.F.);
#206=EDGE_LOOP('NONE',(#189,#190,#198,#205));
#207=FACE_BOUND('LOOP1',#206,.T.);
#208=CARTESIAN_POINT('POS142',(1.524E+000,1.8663000832253E-016,
   9.33150041612651E-017));
#209=DIRECTION('DIR223',(-1.0E+000,-1.22460635382238E-016,
   -6.12303176911189E-017));
#210=DIRECTION('DIR224',(-6.12303176911189E-017,9.51325778022015E-020,
   1.0E+000));
#211=AXIS2_PLACEMENT_3D('AXIS82',#208,#209,#210);
#212=CYLINDRICAL_SURFACE('CONE_SURF18',#211,1.98374E+000);
#213=ADVANCED_FACE('FACE68',(#207),#212,.F.);
#214=ORIENTED_EDGE('COEDGE277',*,*,#188,.F.);
#215=EDGE_CURVE('EDGE142',#192,#183,#203,.T.);
#216=ORIENTED_EDGE('COEDGE278',*,*,#215,.F.);
#217=ORIENTED_EDGE('COEDGE279',*,*,#197,.F.);
#218=ORIENTED_EDGE('COEDGE280',*,*,#150,.T.);
#219=EDGE_LOOP('NONE',(#214,#216,#217,#218));
#220=FACE_BOUND('LOOP1',#219,.T.);
#221=ADVANCED_FACE('FACE69',(#220),#212,.F.);
#222=CARTESIAN_POINT('POINT92',(7.61999999999999E-001,0.0E+000,
   3.74015E+000));
#223=VERTEX_POINT('VERTEX92',#222);
#224=CARTESIAN_POINT('POS143',(5.71499999999999E-001,
   -4.58021145424876E-016,3.74015E+000));
#225=DIRECTION('DIR225',(-1.0E+000,0.0E+000,-1.83880688453542E-016));
#226=VECTOR('VEC61',#225,1.0E+000);
#227=LINE('STRAIGHT61',#224,#226);
#228=EDGE_CURVE('EDGE143',#223,#162,#227,.T.);
#229=ORIENTED_EDGE('COEDGE281',*,*,#228,.F.);
#230=CARTESIAN_POINT('POINT93',(7.62000000000001E-001,
   4.58021145424876E-016,-3.74015E+000));
#231=VERTEX_POINT('VERTEX93',#230);
#232=CARTESIAN_POINT('POS144',(7.62E-001,0.0E+000,-4.89186205874358E-033
   ));
#233=DIRECTION('DIR226',(1.0E+000,0.0E+000,1.83880688453542E-016));
#234=DIRECTION('DIR227',(-1.83880688453542E-016,0.0E+000,1.0E+000));
#235=AXIS2_PLACEMENT_3D('AXIS83',#232,#233,#234);
#236=CIRCLE('ELLIPSE43',#235,3.74015E+000);
#237=EDGE_CURVE('EDGE144',#231,#223,#236,.T.);
#238=ORIENTED_EDGE('COEDGE282',*,*,#237,.F.);
#239=CARTESIAN_POINT('POS145',(5.71500000000001E-001,
   4.58021145424876E-016,-3.74015E+000));
#240=DIRECTION('DIR228',(1.0E+000,-0.0E+000,1.83880688453542E-016));
#241=VECTOR('VEC62',#240,1.0E+000);
#242=LINE('STRAIGHT62',#239,#241);
#243=EDGE_CURVE('EDGE145',#164,#231,#242,.T.);
#244=ORIENTED_EDGE('COEDGE283',*,*,#243,.F.);
#245=ORIENTED_EDGE('COEDGE284',*,*,#170,.F.);
#246=EDGE_LOOP('NONE',(#229,#238,#244,#245));
#247=FACE_BOUND('LOOP1',#246,.T.);
#248=CARTESIAN_POINT('POS146',(5.715E-001,0.0E+000,
   -3.50292711503997E-017));
#249=DIRECTION('DIR229',(-1.0E+000,0.0E+000,-1.83880688453542E-016));
#250=DIRECTION('DIR230',(-1.83880688453542E-016,0.0E+000,1.0E+000));
#251=AXIS2_PLACEMENT_3D('AXIS84',#248,#249,#250);
#252=CYLINDRICAL_SURFACE('CONE_SURF19',#251,3.74015E+000);
#253=ADVANCED_FACE('FACE70',(#247),#252,.T.);
#254=ORIENTED_EDGE('COEDGE285',*,*,#228,.T.);
#255=ORIENTED_EDGE('COEDGE286',*,*,#172,.F.);
#256=ORIENTED_EDGE('COEDGE287',*,*,#243,.T.);
#257=EDGE_CURVE('EDGE146',#223,#231,#236,.T.);
#258=ORIENTED_EDGE('COEDGE288',*,*,#257,.F.);
#259=EDGE_LOOP('NONE',(#254,#255,#256,#258));
#260=FACE_BOUND('LOOP1',#259,.T.);
#261=ADVANCED_FACE('FACE71',(#260),#252,.T.);
#262=CARTESIAN_POINT('POINT94',(3.048E+000,7.79920583779575E-017,
   2.413E+000));
#263=VERTEX_POINT('VERTEX94',#262);
#264=CARTESIAN_POINT('POS147',(2.83337E+000,7.7971640072784E-017,
   2.19837E+000));
#265=DIRECTION('DIR231',(-7.07106781186547E-001,-6.72688908756624E-020,
   -7.07106781186548E-001));
#266=VECTOR('VEC63',#265,1.0E+000);
#267=LINE('STRAIGHT63',#264,#266);
#268=EDGE_CURVE('EDGE147',#263,#183,#267,.T.);
#269=ORIENTED_EDGE('COEDGE289',*,*,#268,.T.);
#270=ORIENTED_EDGE('COEDGE290',*,*,#204,.T.);
#271=CARTESIAN_POINT('POINT95',(3.048E+000,5.59890024967591E-016,
   -2.413E+000));
#272=VERTEX_POINT('VERTEX95',#271);
#273=CARTESIAN_POINT('POS148',(2.83337E+000,6.15980940873158E-016,
   -2.19837E+000));
#274=DIRECTION('DIR232',(7.07106781186547E-001,1.73118222523511E-016,
   -7.07106781186548E-001));
#275=VECTOR('VEC64',#274,1.0E+000);
#276=LINE('STRAIGHT64',#273,#275);
#277=EDGE_CURVE('EDGE148',#192,#272,#276,.T.);
#278=ORIENTED_EDGE('COEDGE291',*,*,#277,.T.);
#279=CARTESIAN_POINT('POS149',(3.048E+000,3.73260016645061E-016,
   1.8663000832253E-016));
#280=DIRECTION('DIR233',(-1.0E+000,0.0E+000,-6.12303176911189E-017));
#281=DIRECTION('DIR234',(6.12303176911189E-017,0.0E+000,-1.0E+000));
#282=AXIS2_PLACEMENT_3D('AXIS85',#279,#280,#281);
#283=CIRCLE('ELLIPSE44',#282,2.413E+000);
#284=EDGE_CURVE('EDGE149',#263,#272,#283,.T.);
#285=ORIENTED_EDGE('COEDGE292',*,*,#284,.F.);
#286=EDGE_LOOP('NONE',(#269,#270,#278,#285));
#287=FACE_BOUND('LOOP1',#286,.T.);
#288=CARTESIAN_POINT('POS150',(2.83337E+000,3.46976290472971E-016,
   1.73488145236485E-016));
#289=DIRECTION('DIR235',(1.0E+000,1.22460635382238E-016,
   6.12303176911189E-017));
#290=DIRECTION('DIR236',(-6.12303176911189E-017,9.51325778022015E-020,
   1.0E+000));
#291=AXIS2_PLACEMENT_3D('AXIS86',#288,#289,#290);
#292=CONICAL_SURFACE('CONE_SURF20',#291,2.19837E+000,
   7.85398163397448E-001);
#293=ADVANCED_FACE('FACE72',(#287),#292,.F.);
#294=ORIENTED_EDGE('COEDGE293',*,*,#268,.F.);
#295=EDGE_CURVE('EDGE150',#272,#263,#283,.T.);
#296=ORIENTED_EDGE('COEDGE294',*,*,#295,.F.);
#297=ORIENTED_EDGE('COEDGE295',*,*,#277,.F.);
#298=ORIENTED_EDGE('COEDGE296',*,*,#215,.T.);
#299=EDGE_LOOP('NONE',(#294,#296,#297,#298));
#300=FACE_BOUND('LOOP1',#299,.T.);
#301=ADVANCED_FACE('FACE73',(#300),#292,.F.);
#302=ORIENTED_EDGE('COEDGE297',*,*,#257,.T.);
#303=ORIENTED_EDGE('COEDGE298',*,*,#237,.T.);
#304=EDGE_LOOP('NONE',(#302,#303));
#305=FACE_BOUND('LOOP1',#304,.T.);
#306=CARTESIAN_POINT('POINT96',(7.61999999999999E-001,
   -4.66575020806326E-017,4.318E+000));
#307=VERTEX_POINT('VERTEX96',#306);
#308=CARTESIAN_POINT('POINT97',(7.62000000000001E-001,
   3.65045824625233E-015,-4.318E+000));
#309=VERTEX_POINT('VERTEX97',#308);
#310=CARTESIAN_POINT('POS151',(7.62E-001,0.0E+000,1.39972506241898E-016)
   );
#311=DIRECTION('DIR237',(1.0E+000,0.0E+000,1.83690953073357E-016));
#312=DIRECTION('DIR238',(-1.83690953073357E-016,-9.67865509456422E-016,
   1.0E+000));
#313=AXIS2_PLACEMENT_3D('AXIS87',#310,#311,#312);
#314=CIRCLE('ELLIPSE45',#313,4.318E+000);
#315=EDGE_CURVE('EDGE151',#307,#309,#314,.T.);
#316=ORIENTED_EDGE('COEDGE299',*,*,#315,.F.);
#317=EDGE_CURVE('EDGE152',#309,#307,#314,.T.);
#318=ORIENTED_EDGE('COEDGE300',*,*,#317,.F.);
#319=EDGE_LOOP('NONE',(#316,#318));
#320=FACE_BOUND('LOOP1',#319,.T.);
#321=CARTESIAN_POINT('POS152',(7.61999999999999E-001,
   -4.66575020806326E-017,2.159E+000));
#322=DIRECTION('DIR239',(-1.0E+000,0.0E+000,-1.83690953073357E-016));
#323=DIRECTION('DIR240',(0.0E+000,1.0E+000,0.0E+000));
#324=AXIS2_PLACEMENT_3D('AXIS88',#321,#322,#323);
#325=PLANE('PLANE22',#324);
#326=ADVANCED_FACE('FACE74',(#305,#320),#325,.T.);
#327=CARTESIAN_POINT('POINT98',(2.667E+000,-1.63301257282214E-016,
   4.318E+000));
#328=VERTEX_POINT('VERTEX98',#327);
#329=CARTESIAN_POINT('POS153',(1.7145E+000,-3.65045824625233E-015,
   4.318E+000));
#330=DIRECTION('DIR241',(1.0E+000,0.0E+000,1.83690953073357E-016));
#331=VECTOR('VEC65',#330,1.0E+000);
#332=LINE('STRAIGHT65',#329,#331);
#333=EDGE_CURVE('EDGE153',#307,#328,#332,.T.);
#334=ORIENTED_EDGE('COEDGE301',*,*,#333,.T.);
#335=CARTESIAN_POINT('POINT99',(2.667E+000,3.65045824625233E-015,
   -4.318E+000));
#336=VERTEX_POINT('VERTEX99',#335);
#337=CARTESIAN_POINT('POS154',(2.667E+000,0.0E+000,4.89903771846642E-016
   ));
#338=DIRECTION('DIR242',(1.0E+000,0.0E+000,1.83690953073357E-016));
#339=DIRECTION('DIR243',(-1.83690953073357E-016,-9.67865509456422E-016,
   1.0E+000));
#340=AXIS2_PLACEMENT_3D('AXIS89',#337,#338,#339);
#341=CIRCLE('ELLIPSE46',#340,4.318E+000);
#342=EDGE_CURVE('EDGE154',#336,#328,#341,.T.);
#343=ORIENTED_EDGE('COEDGE302',*,*,#342,.F.);
#344=CARTESIAN_POINT('POS155',(1.7145E+000,3.65045824625233E-015,
   -4.318E+000));
#345=DIRECTION('DIR244',(-1.0E+000,-0.0E+000,-1.83690953073357E-016));
#346=VECTOR('VEC66',#345,1.0E+000);
#347=LINE('STRAIGHT66',#344,#346);
#348=EDGE_CURVE('EDGE155',#336,#309,#347,.T.);
#349=ORIENTED_EDGE('COEDGE303',*,*,#348,.T.);
#350=ORIENTED_EDGE('COEDGE304',*,*,#317,.T.);
#351=EDGE_LOOP('NONE',(#334,#343,#349,#350));
#352=FACE_BOUND('LOOP1',#351,.T.);
#353=CARTESIAN_POINT('POS156',(1.7145E+000,0.0E+000,3.1493813904427E-016
   ));
#354=DIRECTION('DIR245',(1.0E+000,0.0E+000,1.83690953073357E-016));
#355=DIRECTION('DIR246',(-1.83690953073357E-016,-9.67865509456422E-016,
   1.0E+000));
#356=AXIS2_PLACEMENT_3D('AXIS90',#353,#354,#355);
#357=CYLINDRICAL_SURFACE('CONE_SURF21',#356,4.318E+000);
#358=ADVANCED_FACE('FACE75',(#352),#357,.T.);
#359=ORIENTED_EDGE('COEDGE305',*,*,#295,.T.);
#360=ORIENTED_EDGE('COEDGE306',*,*,#284,.T.);
#361=EDGE_LOOP('NONE',(#359,#360));
#362=FACE_BOUND('LOOP1',#361,.T.);
#363=CARTESIAN_POINT('POINT100',(3.048E+000,-1.8663000832253E-016,
   3.937E+000));
#364=VERTEX_POINT('VERTEX100',#363);
#365=CARTESIAN_POINT('POINT101',(3.048E+000,3.32835898923007E-015,
   -3.937E+000));
#366=VERTEX_POINT('VERTEX101',#365);
#367=CARTESIAN_POINT('POS157',(3.048E+000,0.0E+000,5.59890024967591E-016
   ));
#368=DIRECTION('DIR247',(1.0E+000,2.18952885050753E-047,
   1.83690953073357E-016));
#369=DIRECTION('DIR248',(-1.83690953073357E-016,-9.67865509456422E-016,
   1.0E+000));
#370=AXIS2_PLACEMENT_3D('AXIS91',#367,#368,#369);
#371=CIRCLE('ELLIPSE47',#370,3.937E+000);
#372=EDGE_CURVE('EDGE156',#364,#366,#371,.T.);
#373=ORIENTED_EDGE('COEDGE307',*,*,#372,.T.);
#374=EDGE_CURVE('EDGE157',#366,#364,#371,.T.);
#375=ORIENTED_EDGE('COEDGE308',*,*,#374,.T.);
#376=EDGE_LOOP('NONE',(#373,#375));
#377=FACE_BOUND('LOOP1',#376,.T.);
#378=CARTESIAN_POINT('POS158',(3.048E+000,-1.8663000832253E-016,
   1.9685E+000));
#379=DIRECTION('DIR249',(1.0E+000,0.0E+000,1.83690953073357E-016));
#380=DIRECTION('DIR250',(0.0E+000,1.0E+000,0.0E+000));
#381=AXIS2_PLACEMENT_3D('AXIS92',#378,#379,#380);
#382=PLANE('PLANE23',#381);
#383=ADVANCED_FACE('FACE76',(#362,#377),#382,.T.);
#384=ORIENTED_EDGE('COEDGE309',*,*,#333,.F.);
#385=ORIENTED_EDGE('COEDGE310',*,*,#315,.T.);
#386=ORIENTED_EDGE('COEDGE311',*,*,#348,.F.);
#387=EDGE_CURVE('EDGE158',#328,#336,#341,.T.);
#388=ORIENTED_EDGE('COEDGE312',*,*,#387,.F.);
#389=EDGE_LOOP('NONE',(#384,#385,#386,#388));
#390=FACE_BOUND('LOOP1',#389,.T.);
#391=ADVANCED_FACE('FACE77',(#390),#357,.T.);
#392=CARTESIAN_POINT('POS159',(2.8575E+000,-3.4894086177412E-015,
   4.1275E+000));
#393=DIRECTION('DIR251',(7.07106781186548E-001,5.97791519306015E-016,
   -7.07106781186547E-001));
#394=VECTOR('VEC67',#393,1.0E+000);
#395=LINE('STRAIGHT67',#392,#394);
#396=EDGE_CURVE('EDGE159',#328,#364,#395,.T.);
#397=ORIENTED_EDGE('COEDGE313',*,*,#396,.T.);
#398=ORIENTED_EDGE('COEDGE314',*,*,#374,.F.);
#399=CARTESIAN_POINT('POS160',(2.8575E+000,3.4894086177412E-015,
   -4.1275E+000));
#400=DIRECTION('DIR252',(-7.07106781186548E-001,5.97791519306015E-016,
   -7.07106781186547E-001));
#401=VECTOR('VEC68',#400,1.0E+000);
#402=LINE('STRAIGHT68',#399,#401);
#403=EDGE_CURVE('EDGE160',#366,#336,#402,.T.);
#404=ORIENTED_EDGE('COEDGE315',*,*,#403,.T.);
#405=ORIENTED_EDGE('COEDGE316',*,*,#342,.T.);
#406=EDGE_LOOP('NONE',(#397,#398,#404,#405));
#407=FACE_BOUND('LOOP1',#406,.T.);
#408=CARTESIAN_POINT('POS161',(2.8575E+000,0.0E+000,
   5.24896898407116E-016));
#409=DIRECTION('DIR253',(-1.0E+000,-2.18952885050753E-047,
   -1.83690953073357E-016));
#410=DIRECTION('DIR254',(-1.83690953073357E-016,-9.67865509456422E-016,
   1.0E+000));
#411=AXIS2_PLACEMENT_3D('AXIS93',#408,#409,#410);
#412=CONICAL_SURFACE('CONE_SURF22',#411,4.1275E+000,
   7.85398163397448E-001);
#413=ADVANCED_FACE('FACE78',(#407),#412,.T.);
#414=ORIENTED_EDGE('COEDGE317',*,*,#396,.F.);
#415=ORIENTED_EDGE('COEDGE318',*,*,#387,.T.);
#416=ORIENTED_EDGE('COEDGE319',*,*,#403,.F.);
#417=ORIENTED_EDGE('COEDGE320',*,*,#372,.F.);
#418=EDGE_LOOP('NONE',(#414,#415,#416,#417));
#419=FACE_BOUND('LOOP1',#418,.T.);
#420=ADVANCED_FACE('FACE79',(#419),#412,.T.);
#421=CLOSED_SHELL('SHELL3',(#42,#51,#76,#108,#116,#148,#156,#181,#213,
   #221,#253,#261,#293,#301,#326,#358,#383,#391,#413,#420));
#422=MANIFOLD_SOLID_BREP('LUMP3',#421);
#423=ADVANCED_BREP_SHAPE_REPRESENTATION('BODY2',(#422),#424);
#424=(GEOMETRIC_REPRESENTATION_CONTEXT(3) 
   GLOBAL_UNCERTAINTY_ASSIGNED_CONTEXT((#425)) 
   GLOBAL_UNIT_ASSIGNED_CONTEXT((#426,#427,#428)) REPRESENTATION_CONTEXT
   ('',''));
#425=UNCERTAINTY_MEASURE_WITH_UNIT(LENGTH_MEASURE(1.0E-006),#426,'','');
#426=(LENGTH_UNIT() NAMED_UNIT(*) SI_UNIT(.MILLI.,.METRE.));
#427=(NAMED_UNIT(*) PLANE_ANGLE_UNIT() SI_UNIT($,.RADIAN.));
#428=(NAMED_UNIT(*) SI_UNIT($,.STERADIAN.) SOLID_ANGLE_UNIT());
#429=APPLICATION_CONTEXT(
   'CONFIGURATION CONTROLLED 3D DESIGNS OF MECHANICAL PARTS AND 
ASSEMBLIES');
#430=APPLICATION_PROTOCOL_DEFINITION('INTERNATIONAL STANDARD',
   'config_control_design',1994,#429);
#431=MECHANICAL_CONTEXT('MECHANICAL_CONTEXT_NAME',#429,'mechanical');
#432=PRODUCT('PRODUCT_ID_3','PRODUCT_NAME_3','PRODUCT_DESCRIPTION',(#431
   ));
#433=PRODUCT_RELATED_PRODUCT_CATEGORY('detail',
   'PRODUCT_RELATED_PRODUCT_CATEGORY_DESCRIPTION',(#432));
#434=PERSON_AND_ORGANIZATION_ROLE('design_owner');
#435=CC_DESIGN_PERSON_AND_ORGANIZATION_ASSIGNMENT(#438,#434,(#432));
#436=PERSON('ID_17','PERSON_LAST_NAME','PERSON_FIRST_NAME',$,$,$);
#437=ORGANIZATION('ORGANIZATION_ID','ORGANIZATION_NAME',
   'ORGANIZATION_DESCRIPTION');
#438=PERSON_AND_ORGANIZATION(#436,#437);
#439=PRODUCT_DEFINITION_FORMATION_WITH_SPECIFIED_SOURCE(
   'PRODUCT_DEFINITION_FORMATION_ID',
   'PRODUCT_DEFINITION_FORMATION_DESCRIPTION',#432,.NOT_KNOWN.);
#440=PERSON_AND_ORGANIZATION_ROLE('creator');
#441=CC_DESIGN_PERSON_AND_ORGANIZATION_ASSIGNMENT(#444,#440,(#439));
#442=PERSON('ID_18','PERSON_LAST_NAME','PERSON_FIRST_NAME',$,$,$);
#443=ORGANIZATION('ORGANIZATION_ID','ORGANIZATION_NAME',
   'ORGANIZATION_DESCRIPTION');
#444=PERSON_AND_ORGANIZATION(#442,#443);
#445=PERSON_AND_ORGANIZATION_ROLE('part_supplier');
#446=CC_DESIGN_PERSON_AND_ORGANIZATION_ASSIGNMENT(#449,#445,(#439));
#447=PERSON('ID_19','PERSON_LAST_NAME','PERSON_FIRST_NAME',$,$,$);
#448=ORGANIZATION('ORGANIZATION_ID','ORGANIZATION_NAME',
   'ORGANIZATION_DESCRIPTION');
#449=PERSON_AND_ORGANIZATION(#447,#448);
#450=APPROVAL_STATUS('approved');
#451=APPROVAL(#450,'APPROVAL_LEVEL');
#452=CC_DESIGN_APPROVAL(#451,(#439));
#453=APPROVAL_ROLE('APPROVAL_ROLE');
#454=APPROVAL_PERSON_ORGANIZATION(#457,#451,#453);
#455=PERSON('ID_20','PERSON_LAST_NAME','PERSON_FIRST_NAME',$,$,$);
#456=ORGANIZATION('ORGANIZATION_ID','ORGANIZATION_NAME',
   'ORGANIZATION_DESCRIPTION');
#457=PERSON_AND_ORGANIZATION(#455,#456);
#458=APPROVAL_DATE_TIME(#462,#451);
#459=CALENDAR_DATE(1997,1,1);
#460=COORDINATED_UNIVERSAL_TIME_OFFSET(0,0,.AHEAD.);
#461=LOCAL_TIME(0,0,0.0E+000,#460);
#462=DATE_AND_TIME(#459,#461);
#463=SECURITY_CLASSIFICATION_LEVEL('classified');
#464=SECURITY_CLASSIFICATION('SECURITY_CLASSIFICATION_NAME',
   'SECURITY_CLASSIFICATION_PURPOSE',#463);
#465=CC_DESIGN_SECURITY_CLASSIFICATION(#464,(#439));
#466=APPROVAL_STATUS('approved');
#467=APPROVAL(#466,'APPROVAL_LEVEL');
#468=CC_DESIGN_APPROVAL(#467,(#464));
#469=APPROVAL_ROLE('APPROVAL_ROLE');
#470=APPROVAL_PERSON_ORGANIZATION(#473,#467,#469);
#471=PERSON('ID_21','PERSON_LAST_NAME','PERSON_FIRST_NAME',$,$,$);
#472=ORGANIZATION('ORGANIZATION_ID','ORGANIZATION_NAME',
   'ORGANIZATION_DESCRIPTION');
#473=PERSON_AND_ORGANIZATION(#471,#472);
#474=APPROVAL_DATE_TIME(#478,#467);
#475=CALENDAR_DATE(1997,1,1);
#476=COORDINATED_UNIVERSAL_TIME_OFFSET(0,0,.AHEAD.);
#477=LOCAL_TIME(0,0,0.0E+000,#476);
#478=DATE_AND_TIME(#475,#477);
#479=PERSON_AND_ORGANIZATION_ROLE('classification_officer');
#480=CC_DESIGN_PERSON_AND_ORGANIZATION_ASSIGNMENT(#483,#479,(#464));
#481=PERSON('ID_22','PERSON_LAST_NAME','PERSON_FIRST_NAME',$,$,$);
#482=ORGANIZATION('ORGANIZATION_ID','ORGANIZATION_NAME',
   'ORGANIZATION_DESCRIPTION');
#483=PERSON_AND_ORGANIZATION(#481,#482);
#484=DATE_TIME_ROLE('classification_date');
#485=CC_DESIGN_DATE_AND_TIME_ASSIGNMENT(#489,#484,(#464));
#486=CALENDAR_DATE(1997,1,1);
#487=COORDINATED_UNIVERSAL_TIME_OFFSET(0,0,.AHEAD.);
#488=LOCAL_TIME(0,0,0.0E+000,#487);
#489=DATE_AND_TIME(#486,#488);
#490=DESIGN_CONTEXT('DESIGN_CONTEXT_NAME',#429,'design');
#491=PRODUCT_DEFINITION('PRODUCT_DEFINITION_ID',
   'PRODUCT_DEFINITION_DESCRIPTION',#439,#490);
#492=PERSON_AND_ORGANIZATION_ROLE('creator');
#493=CC_DESIGN_PERSON_AND_ORGANIZATION_ASSIGNMENT(#496,#492,(#491));
#494=PERSON('ID_23','PERSON_LAST_NAME','PERSON_FIRST_NAME',$,$,$);
#495=ORGANIZATION('ORGANIZATION_ID','ORGANIZATION_NAME',
   'ORGANIZATION_DESCRIPTION');
#496=PERSON_AND_ORGANIZATION(#494,#495);
#497=DATE_TIME_ROLE('creation_date');
#498=CC_DESIGN_DATE_AND_TIME_ASSIGNMENT(#502,#497,(#491));
#499=CALENDAR_DATE(1997,1,1);
#500=COORDINATED_UNIVERSAL_TIME_OFFSET(0,0,.AHEAD.);
#501=LOCAL_TIME(0,0,0.0E+000,#500);
#502=DATE_AND_TIME(#499,#501);
#503=APPROVAL_STATUS('approved');
#504=APPROVAL(#503,'APPROVAL_LEVEL');
#505=CC_DESIGN_APPROVAL(#504,(#491));
#506=APPROVAL_ROLE('APPROVAL_ROLE');
#507=APPROVAL_PERSON_ORGANIZATION(#510,#504,#506);
#508=PERSON('ID_24','PERSON_LAST_NAME','PERSON_FIRST_NAME',$,$,$);
#509=ORGANIZATION('ORGANIZATION_ID','ORGANIZATION_NAME',
   'ORGANIZATION_DESCRIPTION');
#510=PERSON_AND_ORGANIZATION(#508,#509);
#511=APPROVAL_DATE_TIME(#515,#504);
#512=CALENDAR_DATE(1997,1,1);
#513=COORDINATED_UNIVERSAL_TIME_OFFSET(0,0,.AHEAD.);
#514=LOCAL_TIME(0,0,0.0E+000,#513);
#515=DATE_AND_TIME(#512,#514);
#516=PRODUCT_DEFINITION_SHAPE('PRODUCT_DEFINITION_SHAPE_NAME',
   'PRODUCT_DEFINITION_SHAPE_DESCRIPTION',#491);
#517=SHAPE_DEFINITION_REPRESENTATION(#516,#423);
ENDSEC;
END-ISO-10303-21;
                
                  
               
                   
                    
     
                
