ISO-10303-21;
HEADER;
/****************************************************************
 * Generated by software with PDE/Lib inside                    *
 * PDElib Version v51a, created Thu 01/14/2010                  *
 * ITI Transcendata (http://www.transcendata.com/)              *
 ****************************************************************/
FILE_DESCRIPTION((''),'2;1');
FILE_NAME('S:\\Engineering\\Public\\Projects\\FlatPack 2\\FP2 19in 600 15 INCH DEEP\\Workspace\\111junk\\STANDOFFS\\THROUGH\\METRIC\\SO-M5-22-ZI.stp','2012-07-02T10:44:55',('stlaus'),(''),'Autodesk Inventor 2011','Autodesk Inventor 2011','');
FILE_SCHEMA(('AUTOMOTIVE_DESIGN { 1 0 10303 214 1 1 1 1 }'));
ENDSEC;
DATA;
#5=APPLICATION_CONTEXT('automotive design');
#6=APPLICATION_PROTOCOL_DEFINITION('International Standard','automotive_design',2001,#5);
#7=PRODUCT_CONTEXT('',#5,'mechanical');
#8=PRODUCT('Assembly1','Assembly1',$,(#7));
#9=PRODUCT_RELATED_PRODUCT_CATEGORY('part',$,(#8));
#10=PRODUCT_DEFINITION_FORMATION('',$,#8);
#11=PRODUCT_DEFINITION_CONTEXT('part definition',#5,'design');
#12=PRODUCT_DEFINITION('',$,#10,#11);
#18=(NAMED_UNIT(*)PLANE_ANGLE_UNIT()SI_UNIT($,.RADIAN.));
#19=DIMENSIONAL_EXPONENTS(0.0,0.0,0.0,0.0,0.0,0.0,0.0);
#20=PLANE_ANGLE_MEASURE_WITH_UNIT(PLANE_ANGLE_MEASURE(0.017453292500000),#18);
#24=(CONVERSION_BASED_UNIT('DEGREE',#20)NAMED_UNIT(#19)PLANE_ANGLE_UNIT());
#28=(NAMED_UNIT(*)SI_UNIT($,.STERADIAN.)SOLID_ANGLE_UNIT());
#32=(LENGTH_UNIT()NAMED_UNIT(*)SI_UNIT(.CENTI.,.METRE.));
#33=DIMENSIONAL_EXPONENTS(1.0,0.0,0.0,0.0,0.0,0.0,0.0);
#34=LENGTH_MEASURE_WITH_UNIT(LENGTH_MEASURE(2.540000000000000),#32);
#38=(CONVERSION_BASED_UNIT('INCH',#34)LENGTH_UNIT()NAMED_UNIT(#33));
#40=UNCERTAINTY_MEASURE_WITH_UNIT(LENGTH_MEASURE(0.000393700787402),#38,'DISTANCE_ACCURACY_VALUE','');
#42=(GEOMETRIC_REPRESENTATION_CONTEXT(3)GLOBAL_UNCERTAINTY_ASSIGNED_CONTEXT((#40))GLOBAL_UNIT_ASSIGNED_CONTEXT((#24,#28,#38))REPRESENTATION_CONTEXT('None','None'));
#43=AXIS2_PLACEMENT_3D('',#44,#45,#46);
#44=CARTESIAN_POINT('',(0.0,0.0,0.0));
#45=DIRECTION('',(0.0,0.0,1.0));
#46=DIRECTION('',(1.0,0.0,0.0));
#47=SHAPE_REPRESENTATION('',(#43,#694),#42);
#48=PRODUCT_DEFINITION_SHAPE('','',#12);
#49=SHAPE_DEFINITION_REPRESENTATION(#48,#47);
#50=APPLICATION_CONTEXT('automotive design');
#51=APPLICATION_PROTOCOL_DEFINITION('International Standard','automotive_design',2001,#50);
#52=PRODUCT_CONTEXT('',#50,'mechanical');
#53=PRODUCT('SO-M5-22 PEM THRU THD STANDOFF','SO-M5-22 PEM THRU THD STANDOFF',$,(#52));
#54=PRODUCT_RELATED_PRODUCT_CATEGORY('part',$,(#53));
#55=PRODUCT_DEFINITION_FORMATION('',$,#53);
#56=PRODUCT_DEFINITION_CONTEXT('part definition',#50,'design');
#57=PRODUCT_DEFINITION('',$,#55,#56);
#63=(NAMED_UNIT(*)PLANE_ANGLE_UNIT()SI_UNIT($,.RADIAN.));
#64=DIMENSIONAL_EXPONENTS(0.0,0.0,0.0,0.0,0.0,0.0,0.0);
#65=PLANE_ANGLE_MEASURE_WITH_UNIT(PLANE_ANGLE_MEASURE(0.017453292500000),#63);
#69=(CONVERSION_BASED_UNIT('DEGREE',#65)NAMED_UNIT(#64)PLANE_ANGLE_UNIT());
#73=(NAMED_UNIT(*)SI_UNIT($,.STERADIAN.)SOLID_ANGLE_UNIT());
#77=(LENGTH_UNIT()NAMED_UNIT(*)SI_UNIT(.MILLI.,.METRE.));
#79=UNCERTAINTY_MEASURE_WITH_UNIT(LENGTH_MEASURE(0.010000000000000),#77,'DISTANCE_ACCURACY_VALUE','');
#81=(GEOMETRIC_REPRESENTATION_CONTEXT(3)GLOBAL_UNCERTAINTY_ASSIGNED_CONTEXT((#79))GLOBAL_UNIT_ASSIGNED_CONTEXT((#69,#73,#77))REPRESENTATION_CONTEXT('None','None'));
#82=AXIS2_PLACEMENT_3D('',#83,#84,#85);
#83=CARTESIAN_POINT('',(0.0,0.0,0.0));
#84=DIRECTION('',(0.0,0.0,1.0));
#85=DIRECTION('',(1.0,0.0,0.0));
#86=SHAPE_REPRESENTATION('',(#82),#81);
#87=PRODUCT_DEFINITION_SHAPE('','',#57);
#88=SHAPE_DEFINITION_REPRESENTATION(#87,#86);
#94=(NAMED_UNIT(*)PLANE_ANGLE_UNIT()SI_UNIT($,.RADIAN.));
#95=DIMENSIONAL_EXPONENTS(0.0,0.0,0.0,0.0,0.0,0.0,0.0);
#96=PLANE_ANGLE_MEASURE_WITH_UNIT(PLANE_ANGLE_MEASURE(0.017453292500000),#94);
#100=(CONVERSION_BASED_UNIT('DEGREE',#96)NAMED_UNIT(#95)PLANE_ANGLE_UNIT());
#104=(NAMED_UNIT(*)SI_UNIT($,.STERADIAN.)SOLID_ANGLE_UNIT());
#108=(LENGTH_UNIT()NAMED_UNIT(*)SI_UNIT(.MILLI.,.METRE.));
#110=UNCERTAINTY_MEASURE_WITH_UNIT(LENGTH_MEASURE(0.000001000000000),#108,'DISTANCE_ACCURACY_VALUE','');
#112=(GEOMETRIC_REPRESENTATION_CONTEXT(3)GLOBAL_UNCERTAINTY_ASSIGNED_CONTEXT((#110))GLOBAL_UNIT_ASSIGNED_CONTEXT((#100,#104,#108))REPRESENTATION_CONTEXT('','3D'));
#113=CARTESIAN_POINT('',(0.0,0.0,16.500000000000000));
#114=DIRECTION('',(0.0,0.0,1.0));
#115=DIRECTION('',(1.0,0.0,0.0));
#116=AXIS2_PLACEMENT_3D('',#113,#114,#115);
#117=CYLINDRICAL_SURFACE('',#116,2.500500000000000);
#118=CARTESIAN_POINT('',(-2.500500000000000,3.062128E-016,21.800500000000007));
#119=VERTEX_POINT('',#118);
#120=CARTESIAN_POINT('',(0.0,0.0,21.800500000000007));
#121=DIRECTION('',(0.0,0.0,-1.0));
#122=DIRECTION('',(1.0,0.0,0.0));
#123=AXIS2_PLACEMENT_3D('',#120,#121,#122);
#124=CIRCLE('',#123,2.500500000000000);
#125=EDGE_CURVE('',#119,#119,#124,.T.);
#126=ORIENTED_EDGE('',*,*,#125,.F.);
#127=EDGE_LOOP('',(#126));
#128=FACE_OUTER_BOUND('',#127,.T.);
#129=CARTESIAN_POINT('',(2.500500000000000,0.0,11.0));
#130=VERTEX_POINT('',#129);
#131=CARTESIAN_POINT('',(0.0,0.0,11.0));
#132=DIRECTION('',(0.0,0.0,1.0));
#133=DIRECTION('',(1.0,0.0,0.0));
#134=AXIS2_PLACEMENT_3D('',#131,#132,#133);
#135=CIRCLE('',#134,2.500500000000000);
#136=EDGE_CURVE('',#130,#130,#135,.T.);
#137=ORIENTED_EDGE('',*,*,#136,.F.);
#138=EDGE_LOOP('',(#137));
#139=FACE_BOUND('',#138,.T.);
#140=ADVANCED_FACE('',(#128,#139),#117,.F.);
#141=CARTESIAN_POINT('',(0.0,0.0,11.0));
#142=DIRECTION('',(0.0,0.0,1.0));
#143=DIRECTION('',(1.0,0.0,0.0));
#144=AXIS2_PLACEMENT_3D('',#141,#142,#143);
#145=PLANE('',#144);
#146=ORIENTED_EDGE('',*,*,#136,.T.);
#147=EDGE_LOOP('',(#146));
#148=FACE_OUTER_BOUND('',#147,.T.);
#149=CARTESIAN_POINT('',(-2.500000000000000,-3.061516E-016,11.0));
#150=VERTEX_POINT('',#149);
#151=CARTESIAN_POINT('',(0.0,0.0,11.0));
#152=DIRECTION('',(0.0,0.0,1.0));
#153=DIRECTION('',(1.0,0.0,0.0));
#154=AXIS2_PLACEMENT_3D('',#151,#152,#153);
#155=CIRCLE('',#154,2.500000000000000);
#156=EDGE_CURVE('',#150,#150,#155,.T.);
#157=ORIENTED_EDGE('',*,*,#156,.F.);
#158=EDGE_LOOP('',(#157));
#159=FACE_BOUND('',#158,.T.);
#160=ADVANCED_FACE('',(#148,#159),#145,.T.);
#161=CARTESIAN_POINT('',(0.0,0.0,21.900000000000006));
#162=DIRECTION('',(0.0,0.0,1.0));
#163=DIRECTION('',(-1.0,0.0,0.0));
#164=AXIS2_PLACEMENT_3D('',#161,#162,#163);
#165=CONICAL_SURFACE('',#164,2.600000000000000,45.000000000000007);
#166=ORIENTED_EDGE('',*,*,#125,.T.);
#167=EDGE_LOOP('',(#166));
#168=FACE_OUTER_BOUND('',#167,.T.);
#169=CARTESIAN_POINT('',(2.700000000000000,3.306437E-016,22.0));
#170=VERTEX_POINT('',#169);
#171=CARTESIAN_POINT('',(0.0,0.0,22.0));
#172=DIRECTION('',(0.0,0.0,1.0));
#173=DIRECTION('',(-1.0,0.0,0.0));
#174=AXIS2_PLACEMENT_3D('',#171,#172,#173);
#175=CIRCLE('',#174,2.700000000000000);
#176=EDGE_CURVE('',#170,#170,#175,.T.);
#177=ORIENTED_EDGE('',*,*,#176,.T.);
#178=EDGE_LOOP('',(#177));
#179=FACE_BOUND('',#178,.T.);
#180=ADVANCED_FACE('',(#168,#179),#165,.F.);
#181=CARTESIAN_POINT('',(0.0,0.0,22.0));
#182=DIRECTION('',(0.0,0.0,-1.0));
#183=DIRECTION('',(-1.0,0.0,0.0));
#184=AXIS2_PLACEMENT_3D('',#181,#182,#183);
#185=PLANE('',#184);
#186=CARTESIAN_POINT('',(3.480000000000000,-4.261630E-016,22.0));
#187=VERTEX_POINT('',#186);
#188=CARTESIAN_POINT('',(0.0,0.0,22.0));
#189=DIRECTION('',(0.0,0.0,-1.0));
#190=DIRECTION('',(-1.0,0.0,0.0));
#191=AXIS2_PLACEMENT_3D('',#188,#189,#190);
#192=CIRCLE('',#191,3.480000000000000);
#193=EDGE_CURVE('',#187,#187,#192,.T.);
#194=ORIENTED_EDGE('',*,*,#193,.F.);
#195=EDGE_LOOP('',(#194));
#196=FACE_OUTER_BOUND('',#195,.T.);
#197=ORIENTED_EDGE('',*,*,#176,.F.);
#198=EDGE_LOOP('',(#197));
#199=FACE_BOUND('',#198,.T.);
#200=ADVANCED_FACE('',(#196,#199),#185,.F.);
#201=CARTESIAN_POINT('',(0.0,0.0,-3.092296294546926));
#202=DIRECTION('',(0.0,0.0,1.0));
#203=DIRECTION('',(1.0,0.0,0.0));
#204=AXIS2_PLACEMENT_3D('',#201,#202,#203);
#205=CYLINDRICAL_SURFACE('',#204,2.500000000000000);
#206=ORIENTED_EDGE('',*,*,#156,.T.);
#207=EDGE_LOOP('',(#206));
#208=FACE_OUTER_BOUND('',#207,.T.);
#209=CARTESIAN_POINT('',(-2.500000000000000,-3.061516E-016,0.0));
#210=VERTEX_POINT('',#209);
#211=CARTESIAN_POINT('',(0.0,0.0,0.0));
#212=DIRECTION('',(0.0,0.0,1.0));
#213=DIRECTION('',(1.0,0.0,0.0));
#214=AXIS2_PLACEMENT_3D('',#211,#212,#213);
#215=CIRCLE('',#214,2.500000000000000);
#216=EDGE_CURVE('',#210,#210,#215,.T.);
#217=ORIENTED_EDGE('',*,*,#216,.F.);
#218=EDGE_LOOP('',(#217));
#219=FACE_BOUND('',#218,.T.);
#220=ADVANCED_FACE('',(#208,#219),#205,.F.);
#221=CARTESIAN_POINT('',(0.0,0.0,21.960000000000001));
#222=DIRECTION('',(0.0,0.0,-1.0));
#223=DIRECTION('',(-1.0,0.0,0.0));
#224=AXIS2_PLACEMENT_3D('',#221,#222,#223);
#225=CONICAL_SURFACE('',#224,3.520000000000001,44.999999999999993);
#226=ORIENTED_EDGE('',*,*,#193,.T.);
#227=EDGE_LOOP('',(#226));
#228=FACE_OUTER_BOUND('',#227,.T.);
#229=CARTESIAN_POINT('',(3.560000000000001,4.359599E-016,21.920000000000002));
#230=VERTEX_POINT('',#229);
#231=CARTESIAN_POINT('',(0.0,0.0,21.920000000000002));
#232=DIRECTION('',(0.0,0.0,1.0));
#233=DIRECTION('',(-1.0,0.0,0.0));
#234=AXIS2_PLACEMENT_3D('',#231,#232,#233);
#235=CIRCLE('',#234,3.560000000000001);
#236=EDGE_CURVE('',#230,#230,#235,.T.);
#237=ORIENTED_EDGE('',*,*,#236,.T.);
#238=EDGE_LOOP('',(#237));
#239=FACE_BOUND('',#238,.T.);
#240=ADVANCED_FACE('',(#228,#239),#225,.T.);
#241=CARTESIAN_POINT('',(0.0,0.0,0.0));
#242=DIRECTION('',(0.0,0.0,1.0));
#243=DIRECTION('',(-1.0,0.0,0.0));
#244=AXIS2_PLACEMENT_3D('',#241,#242,#243);
#245=CYLINDRICAL_SURFACE('',#244,3.560000000000001);
#246=CARTESIAN_POINT('',(0.0,-3.560000000000001,2.603500000000000));
#247=VERTEX_POINT('',#246);
#248=CARTESIAN_POINT('',(0.0,0.0,2.603500000000000));
#249=DIRECTION('',(0.0,0.0,1.0));
#250=DIRECTION('',(-1.0,0.0,0.0));
#251=AXIS2_PLACEMENT_3D('',#248,#249,#250);
#252=CIRCLE('',#251,3.560000000000001);
#253=EDGE_CURVE('',#247,#247,#252,.T.);
#254=ORIENTED_EDGE('',*,*,#253,.T.);
#255=EDGE_LOOP('',(#254));
#256=FACE_OUTER_BOUND('',#255,.T.);
#257=ORIENTED_EDGE('',*,*,#236,.F.);
#258=EDGE_LOOP('',(#257));
#259=FACE_BOUND('',#258,.T.);
#260=ADVANCED_FACE('',(#256,#259),#245,.T.);
#261=CARTESIAN_POINT('',(0.0,0.0,2.476500000000000));
#262=DIRECTION('',(0.0,0.0,-1.0));
#263=DIRECTION('',(0.0,-1.0,0.0));
#264=AXIS2_PLACEMENT_3D('',#261,#262,#263);
#265=CYLINDRICAL_SURFACE('',#264,3.306000000000001);
#266=CARTESIAN_POINT('',(0.0,-3.306000000000001,2.603500000000000));
#267=VERTEX_POINT('',#266);
#268=CARTESIAN_POINT('',(0.0,0.0,2.603500000000000));
#269=DIRECTION('',(0.0,0.0,-1.0));
#270=DIRECTION('',(0.0,-1.0,0.0));
#271=AXIS2_PLACEMENT_3D('',#268,#269,#270);
#272=CIRCLE('',#271,3.306000000000001);
#273=EDGE_CURVE('',#267,#267,#272,.T.);
#274=ORIENTED_EDGE('',*,*,#273,.T.);
#275=EDGE_LOOP('',(#274));
#276=FACE_OUTER_BOUND('',#275,.T.);
#277=CARTESIAN_POINT('',(0.0,-3.306000000000001,2.349500000000000));
#278=VERTEX_POINT('',#277);
#279=CARTESIAN_POINT('',(0.0,0.0,2.349500000000000));
#280=DIRECTION('',(0.0,0.0,-1.0));
#281=DIRECTION('',(0.0,-1.0,0.0));
#282=AXIS2_PLACEMENT_3D('',#279,#280,#281);
#283=CIRCLE('',#282,3.306000000000001);
#284=EDGE_CURVE('',#278,#278,#283,.T.);
#285=ORIENTED_EDGE('',*,*,#284,.F.);
#286=EDGE_LOOP('',(#285));
#287=FACE_BOUND('',#286,.T.);
#288=ADVANCED_FACE('',(#276,#287),#265,.T.);
#289=CARTESIAN_POINT('',(0.0,-3.433000000000001,2.603500000000000));
#290=DIRECTION('',(0.0,0.0,1.0));
#291=DIRECTION('',(1.0,0.0,0.0));
#292=AXIS2_PLACEMENT_3D('',#289,#290,#291);
#293=PLANE('',#292);
#294=ORIENTED_EDGE('',*,*,#253,.F.);
#295=EDGE_LOOP('',(#294));
#296=FACE_OUTER_BOUND('',#295,.T.);
#297=ORIENTED_EDGE('',*,*,#273,.F.);
#298=EDGE_LOOP('',(#297));
#299=FACE_BOUND('',#298,.T.);
#300=ADVANCED_FACE('',(#296,#299),#293,.F.);
#301=CARTESIAN_POINT('',(0.0,-3.433000000000001,2.349500000000000));
#302=DIRECTION('',(0.0,0.0,-1.0));
#303=DIRECTION('',(-1.0,0.0,0.0));
#304=AXIS2_PLACEMENT_3D('',#301,#302,#303);
#305=PLANE('',#304);
#306=CARTESIAN_POINT('',(0.0,-3.560000000000001,2.349500000000000));
#307=VERTEX_POINT('',#306);
#308=CARTESIAN_POINT('',(0.0,0.0,2.349500000000000));
#309=DIRECTION('',(0.0,0.0,-1.0));
#310=DIRECTION('',(-1.0,0.0,0.0));
#311=AXIS2_PLACEMENT_3D('',#308,#309,#310);
#312=CIRCLE('',#311,3.560000000000001);
#313=EDGE_CURVE('',#307,#307,#312,.T.);
#314=ORIENTED_EDGE('',*,*,#313,.F.);
#315=EDGE_LOOP('',(#314));
#316=FACE_OUTER_BOUND('',#315,.T.);
#317=ORIENTED_EDGE('',*,*,#284,.T.);
#318=EDGE_LOOP('',(#317));
#319=FACE_BOUND('',#318,.T.);
#320=ADVANCED_FACE('',(#316,#319),#305,.F.);
#321=CARTESIAN_POINT('',(0.0,0.0,0.0));
#322=DIRECTION('',(0.0,0.0,1.0));
#323=DIRECTION('',(-1.0,0.0,0.0));
#324=AXIS2_PLACEMENT_3D('',#321,#322,#323);
#325=CYLINDRICAL_SURFACE('',#324,3.560000000000001);
#326=CARTESIAN_POINT('',(0.0,-3.560000000000001,2.031999999999999));
#327=VERTEX_POINT('',#326);
#328=CARTESIAN_POINT('',(0.0,0.0,2.031999999999999));
#329=DIRECTION('',(0.0,0.0,1.0));
#330=DIRECTION('',(-1.0,0.0,0.0));
#331=AXIS2_PLACEMENT_3D('',#328,#329,#330);
#332=CIRCLE('',#331,3.560000000000001);
#333=EDGE_CURVE('',#327,#327,#332,.T.);
#334=ORIENTED_EDGE('',*,*,#333,.T.);
#335=EDGE_LOOP('',(#334));
#336=FACE_OUTER_BOUND('',#335,.T.);
#337=ORIENTED_EDGE('',*,*,#313,.T.);
#338=EDGE_LOOP('',(#337));
#339=FACE_BOUND('',#338,.T.);
#340=ADVANCED_FACE('',(#336,#339),#325,.T.);
#341=CARTESIAN_POINT('',(0.0,0.0,1.905000000000000));
#342=DIRECTION('',(0.0,0.0,-1.0));
#343=DIRECTION('',(0.0,-1.0,0.0));
#344=AXIS2_PLACEMENT_3D('',#341,#342,#343);
#345=CYLINDRICAL_SURFACE('',#344,3.306000000000001);
#346=CARTESIAN_POINT('',(0.0,-3.306000000000001,2.031999999999999));
#347=VERTEX_POINT('',#346);
#348=CARTESIAN_POINT('',(0.0,0.0,2.031999999999999));
#349=DIRECTION('',(0.0,0.0,-1.0));
#350=DIRECTION('',(0.0,-1.0,0.0));
#351=AXIS2_PLACEMENT_3D('',#348,#349,#350);
#352=CIRCLE('',#351,3.306000000000001);
#353=EDGE_CURVE('',#347,#347,#352,.T.);
#354=ORIENTED_EDGE('',*,*,#353,.T.);
#355=EDGE_LOOP('',(#354));
#356=FACE_OUTER_BOUND('',#355,.T.);
#357=CARTESIAN_POINT('',(0.0,-3.306000000000001,1.778000000000000));
#358=VERTEX_POINT('',#357);
#359=CARTESIAN_POINT('',(0.0,0.0,1.778000000000000));
#360=DIRECTION('',(0.0,0.0,-1.0));
#361=DIRECTION('',(0.0,-1.0,0.0));
#362=AXIS2_PLACEMENT_3D('',#359,#360,#361);
#363=CIRCLE('',#362,3.306000000000001);
#364=EDGE_CURVE('',#358,#358,#363,.T.);
#365=ORIENTED_EDGE('',*,*,#364,.F.);
#366=EDGE_LOOP('',(#365));
#367=FACE_BOUND('',#366,.T.);
#368=ADVANCED_FACE('',(#356,#367),#345,.T.);
#369=CARTESIAN_POINT('',(0.0,-3.433000000000001,2.031999999999999));
#370=DIRECTION('',(0.0,0.0,1.0));
#371=DIRECTION('',(1.0,0.0,0.0));
#372=AXIS2_PLACEMENT_3D('',#369,#370,#371);
#373=PLANE('',#372);
#374=ORIENTED_EDGE('',*,*,#333,.F.);
#375=EDGE_LOOP('',(#374));
#376=FACE_OUTER_BOUND('',#375,.T.);
#377=ORIENTED_EDGE('',*,*,#353,.F.);
#378=EDGE_LOOP('',(#377));
#379=FACE_BOUND('',#378,.T.);
#380=ADVANCED_FACE('',(#376,#379),#373,.F.);
#381=CARTESIAN_POINT('',(0.0,-3.433000000000001,1.778000000000000));
#382=DIRECTION('',(0.0,0.0,-1.0));
#383=DIRECTION('',(-1.0,0.0,0.0));
#384=AXIS2_PLACEMENT_3D('',#381,#382,#383);
#385=PLANE('',#384);
#386=CARTESIAN_POINT('',(0.0,-3.560000000000001,1.778000000000000));
#387=VERTEX_POINT('',#386);
#388=CARTESIAN_POINT('',(0.0,0.0,1.778000000000000));
#389=DIRECTION('',(0.0,0.0,-1.0));
#390=DIRECTION('',(-1.0,0.0,0.0));
#391=AXIS2_PLACEMENT_3D('',#388,#389,#390);
#392=CIRCLE('',#391,3.560000000000001);
#393=EDGE_CURVE('',#387,#387,#392,.T.);
#394=ORIENTED_EDGE('',*,*,#393,.F.);
#395=EDGE_LOOP('',(#394));
#396=FACE_OUTER_BOUND('',#395,.T.);
#397=ORIENTED_EDGE('',*,*,#364,.T.);
#398=EDGE_LOOP('',(#397));
#399=FACE_BOUND('',#398,.T.);
#400=ADVANCED_FACE('',(#396,#399),#385,.F.);
#401=CARTESIAN_POINT('',(0.0,0.0,0.0));
#402=DIRECTION('',(0.0,0.0,1.0));
#403=DIRECTION('',(-1.0,0.0,0.0));
#404=AXIS2_PLACEMENT_3D('',#401,#402,#403);
#405=CYLINDRICAL_SURFACE('',#404,3.560000000000001);
#406=CARTESIAN_POINT('',(0.0,-3.560000000000001,1.397000000000000));
#407=VERTEX_POINT('',#406);
#408=CARTESIAN_POINT('',(0.0,0.0,1.397000000000000));
#409=DIRECTION('',(0.0,0.0,1.0));
#410=DIRECTION('',(-1.0,0.0,0.0));
#411=AXIS2_PLACEMENT_3D('',#408,#409,#410);
#412=CIRCLE('',#411,3.560000000000001);
#413=EDGE_CURVE('',#407,#407,#412,.T.);
#414=ORIENTED_EDGE('',*,*,#413,.T.);
#415=EDGE_LOOP('',(#414));
#416=FACE_OUTER_BOUND('',#415,.T.);
#417=ORIENTED_EDGE('',*,*,#393,.T.);
#418=EDGE_LOOP('',(#417));
#419=FACE_BOUND('',#418,.T.);
#420=ADVANCED_FACE('',(#416,#419),#405,.T.);
#421=CARTESIAN_POINT('',(0.0,0.0,1.016000000000000));
#422=DIRECTION('',(0.0,0.0,-1.0));
#423=DIRECTION('',(0.0,-1.0,0.0));
#424=AXIS2_PLACEMENT_3D('',#421,#422,#423);
#425=CYLINDRICAL_SURFACE('',#424,3.052000000000001);
#426=CARTESIAN_POINT('',(0.0,-3.052000000000001,1.397000000000000));
#427=VERTEX_POINT('',#426);
#428=CARTESIAN_POINT('',(0.0,0.0,1.397000000000000));
#429=DIRECTION('',(0.0,0.0,-1.0));
#430=DIRECTION('',(0.0,-1.0,0.0));
#431=AXIS2_PLACEMENT_3D('',#428,#429,#430);
#432=CIRCLE('',#431,3.052000000000001);
#433=EDGE_CURVE('',#427,#427,#432,.T.);
#434=ORIENTED_EDGE('',*,*,#433,.T.);
#435=EDGE_LOOP('',(#434));
#436=FACE_OUTER_BOUND('',#435,.T.);
#437=CARTESIAN_POINT('',(0.0,-3.052000000000001,0.635000000000000));
#438=VERTEX_POINT('',#437);
#439=CARTESIAN_POINT('',(0.0,0.0,0.635000000000000));
#440=DIRECTION('',(0.0,0.0,-1.0));
#441=DIRECTION('',(0.0,-1.0,0.0));
#442=AXIS2_PLACEMENT_3D('',#439,#440,#441);
#443=CIRCLE('',#442,3.052000000000001);
#444=EDGE_CURVE('',#438,#438,#443,.T.);
#445=ORIENTED_EDGE('',*,*,#444,.F.);
#446=EDGE_LOOP('',(#445));
#447=FACE_BOUND('',#446,.T.);
#448=ADVANCED_FACE('',(#436,#447),#425,.T.);
#449=CARTESIAN_POINT('',(0.0,-3.306000000000001,1.397000000000000));
#450=DIRECTION('',(0.0,0.0,1.0));
#451=DIRECTION('',(1.0,0.0,0.0));
#452=AXIS2_PLACEMENT_3D('',#449,#450,#451);
#453=PLANE('',#452);
#454=ORIENTED_EDGE('',*,*,#413,.F.);
#455=EDGE_LOOP('',(#454));
#456=FACE_OUTER_BOUND('',#455,.T.);
#457=ORIENTED_EDGE('',*,*,#433,.F.);
#458=EDGE_LOOP('',(#457));
#459=FACE_BOUND('',#458,.T.);
#460=ADVANCED_FACE('',(#456,#459),#453,.F.);
#461=CARTESIAN_POINT('',(1.808318E-016,-2.775558E-016,0.635000000000000));
#462=DIRECTION('',(0.0,0.0,1.0));
#463=DIRECTION('',(1.0,0.0,0.0));
#464=AXIS2_PLACEMENT_3D('',#461,#462,#463);
#465=PLANE('',#464);
#466=CARTESIAN_POINT('',(-2.280533563299025,3.949999999999999,0.635000000000000));
#467=VERTEX_POINT('',#466);
#468=CARTESIAN_POINT('',(2.280533563299022,3.950000000000000,0.635000000000000));
#469=VERTEX_POINT('',#468);
#470=CARTESIAN_POINT('',(-2.280533563299025,3.949999999999999,0.635000000000000));
#471=DIRECTION('',(1.0,0.0,0.0));
#472=VECTOR('',#471,4.561067126598046);
#473=LINE('',#470,#472);
#474=EDGE_CURVE('',#467,#469,#473,.T.);
#475=ORIENTED_EDGE('',*,*,#474,.F.);
#476=CARTESIAN_POINT('',(-4.561067126598044,-2.567391E-015,0.635000000000000));
#477=VERTEX_POINT('',#476);
#478=CARTESIAN_POINT('',(-4.561067126598044,-2.664535E-015,0.635000000000000));
#479=DIRECTION('',(0.499999999999999,0.866025403784439,0.0));
#480=VECTOR('',#479,4.561067126598044);
#481=LINE('',#478,#480);
#482=EDGE_CURVE('',#477,#467,#481,.T.);
#483=ORIENTED_EDGE('',*,*,#482,.F.);
#484=CARTESIAN_POINT('',(-2.280533563299020,-3.950000000000001,0.635000000000000));
#485=VERTEX_POINT('',#484);
#486=CARTESIAN_POINT('',(-2.280533563299020,-3.950000000000001,0.635000000000000));
#487=DIRECTION('',(-0.500000000000001,0.866025403784438,0.0));
#488=VECTOR('',#487,4.561067126598043);
#489=LINE('',#486,#488);
#490=EDGE_CURVE('',#485,#477,#489,.T.);
#491=ORIENTED_EDGE('',*,*,#490,.F.);
#492=CARTESIAN_POINT('',(2.280533563299023,-3.950000000000000,0.635000000000000));
#493=VERTEX_POINT('',#492);
#494=CARTESIAN_POINT('',(2.280533563299023,-3.950000000000000,0.635000000000000));
#495=DIRECTION('',(-1.0,0.0,0.0));
#496=VECTOR('',#495,4.561067126598043);
#497=LINE('',#494,#496);
#498=EDGE_CURVE('',#493,#485,#497,.T.);
#499=ORIENTED_EDGE('',*,*,#498,.F.);
#500=CARTESIAN_POINT('',(4.561067126598044,2.081668E-016,0.635000000000000));
#501=VERTEX_POINT('',#500);
#502=CARTESIAN_POINT('',(4.561067126598044,-4.440892E-016,0.635000000000000));
#503=DIRECTION('',(-0.500000000000000,-0.866025403784439,0.0));
#504=VECTOR('',#503,4.561067126598043);
#505=LINE('',#502,#504);
#506=EDGE_CURVE('',#501,#493,#505,.T.);
#507=ORIENTED_EDGE('',*,*,#506,.F.);
#508=CARTESIAN_POINT('',(2.280533563299022,3.950000000000000,0.635000000000000));
#509=DIRECTION('',(0.500000000000000,-0.866025403784439,0.0));
#510=VECTOR('',#509,4.561067126598044);
#511=LINE('',#508,#510);
#512=EDGE_CURVE('',#469,#501,#511,.T.);
#513=ORIENTED_EDGE('',*,*,#512,.F.);
#514=EDGE_LOOP('',(#475,#483,#491,#499,#507,#513));
#515=FACE_OUTER_BOUND('',#514,.T.);
#516=ORIENTED_EDGE('',*,*,#444,.T.);
#517=EDGE_LOOP('',(#516));
#518=FACE_BOUND('',#517,.T.);
#519=ADVANCED_FACE('',(#515,#518),#465,.T.);
#520=CARTESIAN_POINT('',(-2.280533563299025,3.949999999999999,0.0));
#521=DIRECTION('',(0.0,1.0,0.0));
#522=DIRECTION('',(0.0,0.0,1.0));
#523=AXIS2_PLACEMENT_3D('',#520,#521,#522);
#524=PLANE('',#523);
#525=ORIENTED_EDGE('',*,*,#474,.T.);
#526=CARTESIAN_POINT('',(2.280533563299022,3.950000000000000,0.0));
#527=VERTEX_POINT('',#526);
#528=CARTESIAN_POINT('',(2.280533563299022,3.950000000000000,0.0));
#529=DIRECTION('',(0.0,0.0,1.0));
#530=VECTOR('',#529,0.635000000000000);
#531=LINE('',#528,#530);
#532=EDGE_CURVE('',#527,#469,#531,.T.);
#533=ORIENTED_EDGE('',*,*,#532,.F.);
#534=CARTESIAN_POINT('',(-2.280533563299025,3.949999999999999,0.0));
#535=VERTEX_POINT('',#534);
#536=CARTESIAN_POINT('',(2.280533563299022,3.950000000000000,0.0));
#537=DIRECTION('',(-1.0,0.0,0.0));
#538=VECTOR('',#537,4.561067126598046);
#539=LINE('',#536,#538);
#540=EDGE_CURVE('',#527,#535,#539,.T.);
#541=ORIENTED_EDGE('',*,*,#540,.T.);
#542=CARTESIAN_POINT('',(-2.280533563299025,3.949999999999999,0.0));
#543=DIRECTION('',(0.0,0.0,1.0));
#544=VECTOR('',#543,0.635000000000000);
#545=LINE('',#542,#544);
#546=EDGE_CURVE('',#535,#467,#545,.T.);
#547=ORIENTED_EDGE('',*,*,#546,.T.);
#548=EDGE_LOOP('',(#525,#533,#541,#547));
#549=FACE_OUTER_BOUND('',#548,.T.);
#550=ADVANCED_FACE('',(#549),#524,.T.);
#551=CARTESIAN_POINT('',(2.280533563299022,3.950000000000000,0.0));
#552=DIRECTION('',(0.866025403784439,0.500000000000000,0.0));
#553=DIRECTION('',(0.0,0.0,-1.0));
#554=AXIS2_PLACEMENT_3D('',#551,#552,#553);
#555=PLANE('',#554);
#556=ORIENTED_EDGE('',*,*,#512,.T.);
#557=CARTESIAN_POINT('',(4.561067126598044,2.081668E-016,0.0));
#558=VERTEX_POINT('',#557);
#559=CARTESIAN_POINT('',(4.561067126598044,2.081668E-016,0.0));
#560=DIRECTION('',(0.0,0.0,1.0));
#561=VECTOR('',#560,0.635000000000000);
#562=LINE('',#559,#561);
#563=EDGE_CURVE('',#558,#501,#562,.T.);
#564=ORIENTED_EDGE('',*,*,#563,.F.);
#565=CARTESIAN_POINT('',(4.561067126598044,2.081668E-016,0.0));
#566=DIRECTION('',(-0.500000000000000,0.866025403784439,0.0));
#567=VECTOR('',#566,4.561067126598044);
#568=LINE('',#565,#567);
#569=EDGE_CURVE('',#558,#527,#568,.T.);
#570=ORIENTED_EDGE('',*,*,#569,.T.);
#571=ORIENTED_EDGE('',*,*,#532,.T.);
#572=EDGE_LOOP('',(#556,#564,#570,#571));
#573=FACE_OUTER_BOUND('',#572,.T.);
#574=ADVANCED_FACE('',(#573),#555,.T.);
#575=CARTESIAN_POINT('',(4.561067126598044,2.081668E-016,0.0));
#576=DIRECTION('',(0.866025403784439,-0.500000000000000,0.0));
#577=DIRECTION('',(0.0,0.0,-1.0));
#578=AXIS2_PLACEMENT_3D('',#575,#576,#577);
#579=PLANE('',#578);
#580=ORIENTED_EDGE('',*,*,#506,.T.);
#581=CARTESIAN_POINT('',(2.280533563299023,-3.950000000000000,0.0));
#582=VERTEX_POINT('',#581);
#583=CARTESIAN_POINT('',(2.280533563299023,-3.950000000000000,0.0));
#584=DIRECTION('',(0.0,0.0,1.0));
#585=VECTOR('',#584,0.635000000000000);
#586=LINE('',#583,#585);
#587=EDGE_CURVE('',#582,#493,#586,.T.);
#588=ORIENTED_EDGE('',*,*,#587,.F.);
#589=CARTESIAN_POINT('',(2.280533563299023,-3.950000000000000,0.0));
#590=DIRECTION('',(0.500000000000000,0.866025403784439,0.0));
#591=VECTOR('',#590,4.561067126598043);
#592=LINE('',#589,#591);
#593=EDGE_CURVE('',#582,#558,#592,.T.);
#594=ORIENTED_EDGE('',*,*,#593,.T.);
#595=ORIENTED_EDGE('',*,*,#563,.T.);
#596=EDGE_LOOP('',(#580,#588,#594,#595));
#597=FACE_OUTER_BOUND('',#596,.T.);
#598=ADVANCED_FACE('',(#597),#579,.T.);
#599=CARTESIAN_POINT('',(2.280533563299023,-3.950000000000000,0.0));
#600=DIRECTION('',(0.0,-1.0,0.0));
#601=DIRECTION('',(0.0,0.0,-1.0));
#602=AXIS2_PLACEMENT_3D('',#599,#600,#601);
#603=PLANE('',#602);
#604=ORIENTED_EDGE('',*,*,#498,.T.);
#605=CARTESIAN_POINT('',(-2.280533563299020,-3.950000000000001,0.0));
#606=VERTEX_POINT('',#605);
#607=CARTESIAN_POINT('',(-2.280533563299020,-3.950000000000001,0.0));
#608=DIRECTION('',(0.0,0.0,1.0));
#609=VECTOR('',#608,0.635000000000000);
#610=LINE('',#607,#609);
#611=EDGE_CURVE('',#606,#485,#610,.T.);
#612=ORIENTED_EDGE('',*,*,#611,.F.);
#613=CARTESIAN_POINT('',(-2.280533563299020,-3.950000000000001,0.0));
#614=DIRECTION('',(1.0,0.0,0.0));
#615=VECTOR('',#614,4.561067126598043);
#616=LINE('',#613,#615);
#617=EDGE_CURVE('',#606,#582,#616,.T.);
#618=ORIENTED_EDGE('',*,*,#617,.T.);
#619=ORIENTED_EDGE('',*,*,#587,.T.);
#620=EDGE_LOOP('',(#604,#612,#618,#619));
#621=FACE_OUTER_BOUND('',#620,.T.);
#622=ADVANCED_FACE('',(#621),#603,.T.);
#623=CARTESIAN_POINT('',(-2.280533563299020,-3.950000000000001,0.0));
#624=DIRECTION('',(-0.866025403784438,-0.500000000000001,0.0));
#625=DIRECTION('',(0.0,0.0,1.0));
#626=AXIS2_PLACEMENT_3D('',#623,#624,#625);
#627=PLANE('',#626);
#628=ORIENTED_EDGE('',*,*,#490,.T.);
#629=CARTESIAN_POINT('',(-4.561067126598044,-2.567391E-015,0.0));
#630=VERTEX_POINT('',#629);
#631=CARTESIAN_POINT('',(-4.561067126598044,-2.567391E-015,0.0));
#632=DIRECTION('',(0.0,0.0,1.0));
#633=VECTOR('',#632,0.635000000000000);
#634=LINE('',#631,#633);
#635=EDGE_CURVE('',#630,#477,#634,.T.);
#636=ORIENTED_EDGE('',*,*,#635,.F.);
#637=CARTESIAN_POINT('',(-4.561067126598044,-2.567391E-015,0.0));
#638=DIRECTION('',(0.500000000000001,-0.866025403784438,0.0));
#639=VECTOR('',#638,4.561067126598043);
#640=LINE('',#637,#639);
#641=EDGE_CURVE('',#630,#606,#640,.T.);
#642=ORIENTED_EDGE('',*,*,#641,.T.);
#643=ORIENTED_EDGE('',*,*,#611,.T.);
#644=EDGE_LOOP('',(#628,#636,#642,#643));
#645=FACE_OUTER_BOUND('',#644,.T.);
#646=ADVANCED_FACE('',(#645),#627,.T.);
#647=CARTESIAN_POINT('',(-4.561067126598044,-2.567391E-015,0.0));
#648=DIRECTION('',(-0.866025403784439,0.499999999999999,0.0));
#649=DIRECTION('',(0.0,0.0,1.0));
#650=AXIS2_PLACEMENT_3D('',#647,#648,#649);
#651=PLANE('',#650);
#652=ORIENTED_EDGE('',*,*,#482,.T.);
#653=ORIENTED_EDGE('',*,*,#546,.F.);
#654=CARTESIAN_POINT('',(-2.280533563299025,3.949999999999999,0.0));
#655=DIRECTION('',(-0.499999999999999,-0.866025403784439,0.0));
#656=VECTOR('',#655,4.561067126598044);
#657=LINE('',#654,#656);
#658=EDGE_CURVE('',#535,#630,#657,.T.);
#659=ORIENTED_EDGE('',*,*,#658,.T.);
#660=ORIENTED_EDGE('',*,*,#635,.T.);
#661=EDGE_LOOP('',(#652,#653,#659,#660));
#662=FACE_OUTER_BOUND('',#661,.T.);
#663=ADVANCED_FACE('',(#662),#651,.T.);
#664=CARTESIAN_POINT('',(0.0,0.0,0.0));
#665=DIRECTION('',(0.0,0.0,-1.0));
#666=DIRECTION('',(-1.0,0.0,0.0));
#667=AXIS2_PLACEMENT_3D('',#664,#665,#666);
#668=PLANE('',#667);
#669=ORIENTED_EDGE('',*,*,#658,.F.);
#670=ORIENTED_EDGE('',*,*,#540,.F.);
#671=ORIENTED_EDGE('',*,*,#569,.F.);
#672=ORIENTED_EDGE('',*,*,#593,.F.);
#673=ORIENTED_EDGE('',*,*,#617,.F.);
#674=ORIENTED_EDGE('',*,*,#641,.F.);
#675=EDGE_LOOP('',(#669,#670,#671,#672,#673,#674));
#676=FACE_OUTER_BOUND('',#675,.T.);
#677=ORIENTED_EDGE('',*,*,#216,.T.);
#678=EDGE_LOOP('',(#677));
#679=FACE_BOUND('',#678,.T.);
#680=ADVANCED_FACE('',(#676,#679),#668,.T.);
#681=CLOSED_SHELL('',(#140,#160,#180,#200,#220,#240,#260,#288,#300,#320,#340,#368,#380,#400,#420,#448,#460,#519,#550,#574,#598,#622,#646,#663,#680));
#682=MANIFOLD_SOLID_BREP('Solid1',#681);
#683=DRAUGHTING_PRE_DEFINED_COLOUR('white');
#684=FILL_AREA_STYLE_COLOUR('Chrome',#683);
#685=FILL_AREA_STYLE('Chrome',(#684));
#686=SURFACE_STYLE_FILL_AREA(#685);
#687=SURFACE_SIDE_STYLE('Chrome',(#686));
#688=SURFACE_STYLE_USAGE(.BOTH.,#687);
#689=PRESENTATION_STYLE_ASSIGNMENT((#688));
#690=STYLED_ITEM('',(#689),#682);
#691=MECHANICAL_DESIGN_GEOMETRIC_PRESENTATION_REPRESENTATION('',(#690),#42);
#692=ADVANCED_BREP_SHAPE_REPRESENTATION('ABSR',(#682),#81);
#693=SHAPE_REPRESENTATION_RELATIONSHIP('SRR','None',#692,#86);
#694=AXIS2_PLACEMENT_3D('',#695,#696,#697);
#695=CARTESIAN_POINT('',(0.0,0.0,0.0));
#696=DIRECTION('',(0.0,0.0,1.0));
#697=DIRECTION('',(1.0,0.0,0.0));
#698=NEXT_ASSEMBLY_USAGE_OCCURRENCE('SO-M5-22 PEM THRU THD STANDOFF:1','SO-M5-22 PEM THRU THD STANDOFF:1','SO-M5-22 PEM THRU THD STANDOFF:1',#12,#57,'SO-M5-22 PEM THRU THD STANDOFF:1');
#699=PRODUCT_DEFINITION_SHAPE('SO-M5-22 PEM THRU THD STANDOFF:1','SO-M5-22 PEM THRU THD STANDOFF:1',#698);
#700=ITEM_DEFINED_TRANSFORMATION('SO-M5-22 PEM THRU THD STANDOFF:1','SO-M5-22 PEM THRU THD STANDOFF:1',#82,#694);
#704=(REPRESENTATION_RELATIONSHIP('SO-M5-22 PEM THRU THD STANDOFF:1','SO-M5-22 PEM THRU THD STANDOFF:1',#86,#47)REPRESENTATION_RELATIONSHIP_WITH_TRANSFORMATION(#700)SHAPE_REPRESENTATION_RELATIONSHIP());
#705=CONTEXT_DEPENDENT_SHAPE_REPRESENTATION(#704,#699);
ENDSEC;
END-ISO-10303-21;
