ISO-10303-21;
HEADER;
FILE_DESCRIPTION (( 'STEP AP203' ),
    '1' );
FILE_NAME ('90126A505.step',
    '2009-10-20T15:53:26',
    ( ' ' ),
    ( ' ' ),
    'SwSTEP 2.0',
    'SolidWorks 2007',
    '' );
FILE_SCHEMA (( 'CONFIG_CONTROL_DESIGN' ));
ENDSEC;

DATA;
#1 = ORIENTED_EDGE ( 'NONE', *, *, #239, .T. ) ;
#2 = EDGE_LOOP ( 'NONE', ( #223, #227, #230, #233 ) ) ;
#3 = EDGE_LOOP ( 'NONE', ( #4, #1 ) ) ;
#4 = ORIENTED_EDGE ( 'NONE', *, *, #5, .T. ) ;
#5 = EDGE_CURVE ( 'NONE', #241, #240, #37, .T. ) ;
#6 = ORIENTED_EDGE ( 'NONE', *, *, #234, .T. ) ;
#7 = ORIENTED_EDGE ( 'NONE', *, *, #8, .F. ) ;
#8 = EDGE_CURVE ( 'NONE', #229, #232, #39, .T. ) ;
#9 = ADVANCED_FACE ( 'NONE', ( #46, #45 ), #42, .F. ) ;
#10 = EDGE_LOOP ( 'NONE', ( #11, #25 ) ) ;
#11 = ORIENTED_EDGE ( 'NONE', *, *, #224, .F. ) ;
#12 = ORIENTED_EDGE ( 'NONE', *, *, #243, .F. ) ;
#13 = ORIENTED_EDGE ( 'NONE', *, *, #5, .F. ) ;
#14 = ORIENTED_EDGE ( 'NONE', *, *, #228, .F. ) ;
#15 = ORIENTED_EDGE ( 'NONE', *, *, #21, .T. ) ;
#16 = ADVANCED_FACE ( 'NONE', ( #86 ), #52, .F. ) ;
#17 = EDGE_LOOP ( 'NONE', ( #18, #19 ) ) ;
#18 = ORIENTED_EDGE ( 'NONE', *, *, #231, .T. ) ;
#19 = ORIENTED_EDGE ( 'NONE', *, *, #8, .T. ) ;
#20 = EDGE_LOOP ( 'NONE', ( #12, #13, #26, #27 ) ) ;
#21 = EDGE_CURVE ( 'NONE', #226, #225, #81, .T. ) ;
#22 = EDGE_LOOP ( 'NONE', ( #23, #30 ) ) ;
#23 = ORIENTED_EDGE ( 'NONE', *, *, #29, .F. ) ;
#24 = CLOSED_SHELL ( 'NONE', ( #237, #250, #235, #9, #38, #16 ) ) ;
#25 = ORIENTED_EDGE ( 'NONE', *, *, #21, .F. ) ;
#26 = ORIENTED_EDGE ( 'NONE', *, *, #249, .T. ) ;
#27 = ORIENTED_EDGE ( 'NONE', *, *, #29, .T. ) ;
#28 = PERSON ( 'UNSPECIFIED', 'UNSPECIFIED', 'UNSPECIFIED', ('UNSPECIFIED'), ('UNSPECIFIED'), ('UNSPECIFIED') ) ;
#29 = EDGE_CURVE ( 'NONE', #247, #244, #76, .T. ) ;
#30 = ORIENTED_EDGE ( 'NONE', *, *, #246, .F. ) ;
#31 = CARTESIAN_POINT ( 'NONE',  ( 0.0000000000000000000, 0.0000000000000000000, -0.02000000000000000000 ) ) ;
#32 = AXIS2_PLACEMENT_3D ( 'NONE', #31, #44, #51 ) ;
#33 = DIRECTION ( 'NONE',  ( 1.000000000000000000, 0.0000000000000000000, 0.0000000000000000000 ) ) ;
#34 = DIRECTION ( 'NONE',  ( 0.0000000000000000000, 0.0000000000000000000, 1.000000000000000000 ) ) ;
#35 = CARTESIAN_POINT ( 'NONE',  ( 0.0000000000000000000, 0.0000000000000000000, -0.02000000000000000000 ) ) ;
#36 = AXIS2_PLACEMENT_3D ( 'NONE', #35, #34, #33 ) ;
#37 = CIRCLE ( 'NONE', #36, 0.06250000000000002800 ) ;
#38 = ADVANCED_FACE ( 'NONE', ( #71, #70 ), #68, .T. ) ;
#39 = CIRCLE ( 'NONE', #41, 0.1562500000000000000 ) ;
#40 = CARTESIAN_POINT ( 'NONE',  ( 0.0000000000000000000, 0.0000000000000000000, 0.0000000000000000000 ) ) ;
#41 = AXIS2_PLACEMENT_3D ( 'NONE', #40, #48, #47 ) ;
#42 = PLANE ( 'NONE',  #32 ) ;
#43 = CARTESIAN_POINT ( 'NONE',  ( 0.0000000000000000000, 0.0000000000000000000, -0.02000000000000000000 ) ) ;
#44 = DIRECTION ( 'NONE',  ( 0.0000000000000000000, 0.0000000000000000000, 1.000000000000000000 ) ) ;
#45 = FACE_OUTER_BOUND ( 'NONE', #10, .T. ) ;
#46 = FACE_BOUND ( 'NONE', #3, .T. ) ;
#47 = DIRECTION ( 'NONE',  ( 1.000000000000000000, 0.0000000000000000000, 0.0000000000000000000 ) ) ;
#48 = DIRECTION ( 'NONE',  ( 0.0000000000000000000, 0.0000000000000000000, 1.000000000000000000 ) ) ;
#49 = CYLINDRICAL_SURFACE ( 'NONE', #50, 0.1562500000000000000 ) ;
#50 = AXIS2_PLACEMENT_3D ( 'NONE', #43, #89, #88 ) ;
#51 = DIRECTION ( 'NONE',  ( 1.000000000000000000, 0.0000000000000000000, 0.0000000000000000000 ) ) ;
#52 = CYLINDRICAL_SURFACE ( 'NONE', #82, 0.06250000000000002800 ) ;
#53 = CARTESIAN_POINT ( 'NONE',  ( -0.06250000000000002800, 7.654042494670960600E-018, 0.0000000000000000000 ) ) ;
#54 = DIRECTION ( 'NONE',  ( 0.0000000000000000000, 0.0000000000000000000, 1.000000000000000000 ) ) ;
#55 = VECTOR ( 'NONE', #54, 39.37007874015748100 ) ;
#56 = CARTESIAN_POINT ( 'NONE',  ( -0.06250000000000002800, 7.654042494670960600E-018, -0.02000000000000000000 ) ) ;
#57 = LINE ( 'NONE', #56, #55 ) ;
#58 = CARTESIAN_POINT ( 'NONE',  ( 0.06250000000000002800, 0.0000000000000000000, -0.02000000000000000000 ) ) ;
#59 = CARTESIAN_POINT ( 'NONE',  ( -0.06250000000000002800, 7.654042494670960600E-018, -0.02000000000000000000 ) ) ;
#60 = DIRECTION ( 'NONE',  ( 1.000000000000000000, 0.0000000000000000000, 0.0000000000000000000 ) ) ;
#61 = DIRECTION ( 'NONE',  ( 0.0000000000000000000, 0.0000000000000000000, 1.000000000000000000 ) ) ;
#62 = AXIS2_PLACEMENT_3D ( 'NONE', #65, #61, #60 ) ;
#63 = CIRCLE ( 'NONE', #62, 0.06250000000000002800 ) ;
#64 = DIRECTION ( 'NONE',  ( 1.000000000000000000, 0.0000000000000000000, 0.0000000000000000000 ) ) ;
#65 = CARTESIAN_POINT ( 'NONE',  ( 0.0000000000000000000, 0.0000000000000000000, -0.02000000000000000000 ) ) ;
#66 = CARTESIAN_POINT ( 'NONE',  ( 0.0000000000000000000, 0.0000000000000000000, 0.0000000000000000000 ) ) ;
#67 = AXIS2_PLACEMENT_3D ( 'NONE', #66, #133, #132 ) ;
#68 = PLANE ( 'NONE',  #67 ) ;
#69 = CARTESIAN_POINT ( 'NONE',  ( 0.0000000000000000000, 0.0000000000000000000, -0.02000000000000000000 ) ) ;
#70 = FACE_OUTER_BOUND ( 'NONE', #17, .T. ) ;
#71 = FACE_BOUND ( 'NONE', #22, .T. ) ;
#72 = DIRECTION ( 'NONE',  ( 1.000000000000000000, 0.0000000000000000000, 0.0000000000000000000 ) ) ;
#73 = DIRECTION ( 'NONE',  ( 0.0000000000000000000, 0.0000000000000000000, 1.000000000000000000 ) ) ;
#74 = CARTESIAN_POINT ( 'NONE',  ( 0.0000000000000000000, 0.0000000000000000000, 0.0000000000000000000 ) ) ;
#75 = AXIS2_PLACEMENT_3D ( 'NONE', #74, #73, #72 ) ;
#76 = CIRCLE ( 'NONE', #75, 0.06250000000000002800 ) ;
#77 = DIRECTION ( 'NONE',  ( 1.000000000000000000, 0.0000000000000000000, 0.0000000000000000000 ) ) ;
#78 = DIRECTION ( 'NONE',  ( 0.0000000000000000000, 0.0000000000000000000, 1.000000000000000000 ) ) ;
#79 = CARTESIAN_POINT ( 'NONE',  ( 0.0000000000000000000, 0.0000000000000000000, -0.02000000000000000000 ) ) ;
#80 = AXIS2_PLACEMENT_3D ( 'NONE', #79, #78, #77 ) ;
#81 = CIRCLE ( 'NONE', #80, 0.1562500000000000000 ) ;
#82 = AXIS2_PLACEMENT_3D ( 'NONE', #85, #84, #83 ) ;
#83 = DIRECTION ( 'NONE',  ( 1.000000000000000000, 0.0000000000000000000, 0.0000000000000000000 ) ) ;
#84 = DIRECTION ( 'NONE',  ( 0.0000000000000000000, 0.0000000000000000000, 1.000000000000000000 ) ) ;
#85 = CARTESIAN_POINT ( 'NONE',  ( 0.0000000000000000000, 0.0000000000000000000, -0.02000000000000000000 ) ) ;
#86 = FACE_OUTER_BOUND ( 'NONE', #20, .T. ) ;
#87 = FACE_OUTER_BOUND ( 'NONE', #2, .T. ) ;
#88 = DIRECTION ( 'NONE',  ( 1.000000000000000000, 0.0000000000000000000, 0.0000000000000000000 ) ) ;
#89 = DIRECTION ( 'NONE',  ( 0.0000000000000000000, 0.0000000000000000000, 1.000000000000000000 ) ) ;
#90 = DIRECTION ( 'NONE',  ( 0.0000000000000000000, 0.0000000000000000000, 1.000000000000000000 ) ) ;
#91 = VECTOR ( 'NONE', #90, 39.37007874015748100 ) ;
#92 = CARTESIAN_POINT ( 'NONE',  ( 0.06250000000000002800, 0.0000000000000000000, -0.02000000000000000000 ) ) ;
#93 = LINE ( 'NONE', #92, #91 ) ;
#94 = CARTESIAN_POINT ( 'NONE',  ( 0.06250000000000002800, 0.0000000000000000000, 0.0000000000000000000 ) ) ;
#95 = DIRECTION ( 'NONE',  ( 1.000000000000000000, 0.0000000000000000000, 0.0000000000000000000 ) ) ;
#96 = DIRECTION ( 'NONE',  ( 0.0000000000000000000, 0.0000000000000000000, 1.000000000000000000 ) ) ;
#97 = CARTESIAN_POINT ( 'NONE',  ( 0.0000000000000000000, 0.0000000000000000000, 0.0000000000000000000 ) ) ;
#98 = AXIS2_PLACEMENT_3D ( 'NONE', #97, #96, #95 ) ;
#99 = CIRCLE ( 'NONE', #98, 0.06250000000000002800 ) ;
#100 = CARTESIAN_POINT ( 'NONE',  ( 0.0000000000000000000, 0.0000000000000000000, -0.02000000000000000000 ) ) ;
#101 = AXIS2_PLACEMENT_3D ( 'NONE', #100, #109, #64 ) ;
#102 = CYLINDRICAL_SURFACE ( 'NONE', #101, 0.06250000000000002800 ) ;
#103 = FACE_OUTER_BOUND ( 'NONE', #251, .T. ) ;
#104 = DIRECTION ( 'NONE',  ( 1.000000000000000000, 0.0000000000000000000, 0.0000000000000000000 ) ) ;
#105 = DIRECTION ( 'NONE',  ( 0.0000000000000000000, 0.0000000000000000000, 1.000000000000000000 ) ) ;
#106 = CARTESIAN_POINT ( 'NONE',  ( 0.0000000000000000000, 0.0000000000000000000, -0.02000000000000000000 ) ) ;
#107 = AXIS2_PLACEMENT_3D ( 'NONE', #106, #105, #104 ) ;
#108 = CYLINDRICAL_SURFACE ( 'NONE', #107, 0.1562500000000000000 ) ;
#109 = DIRECTION ( 'NONE',  ( 0.0000000000000000000, 0.0000000000000000000, 1.000000000000000000 ) ) ;
#110 = FACE_OUTER_BOUND ( 'NONE', #236, .T. ) ;
#111 = DIRECTION ( 'NONE',  ( 0.0000000000000000000, 0.0000000000000000000, 1.000000000000000000 ) ) ;
#112 = VECTOR ( 'NONE', #111, 39.37007874015748100 ) ;
#113 = CARTESIAN_POINT ( 'NONE',  ( 0.1562500000000000000, 0.0000000000000000000, -0.02000000000000000000 ) ) ;
#114 = LINE ( 'NONE', #113, #112 ) ;
#115 = CARTESIAN_POINT ( 'NONE',  ( 0.1562500000000000000, 0.0000000000000000000, 0.0000000000000000000 ) ) ;
#116 = DIRECTION ( 'NONE',  ( 1.000000000000000000, 0.0000000000000000000, 0.0000000000000000000 ) ) ;
#117 = DIRECTION ( 'NONE',  ( 0.0000000000000000000, 0.0000000000000000000, 1.000000000000000000 ) ) ;
#118 = CARTESIAN_POINT ( 'NONE',  ( 0.0000000000000000000, 0.0000000000000000000, 0.0000000000000000000 ) ) ;
#119 = AXIS2_PLACEMENT_3D ( 'NONE', #118, #117, #116 ) ;
#120 = CIRCLE ( 'NONE', #119, 0.1562500000000000000 ) ;
#121 = CARTESIAN_POINT ( 'NONE',  ( -0.1562500000000000000, 1.913510623667739500E-017, 0.0000000000000000000 ) ) ;
#122 = DIRECTION ( 'NONE',  ( 0.0000000000000000000, 0.0000000000000000000, 1.000000000000000000 ) ) ;
#123 = VECTOR ( 'NONE', #122, 39.37007874015748100 ) ;
#124 = CARTESIAN_POINT ( 'NONE',  ( -0.1562500000000000000, 1.913510623667739500E-017, -0.02000000000000000000 ) ) ;
#125 = LINE ( 'NONE', #124, #123 ) ;
#126 = CARTESIAN_POINT ( 'NONE',  ( -0.1562500000000000000, 1.913510623667739500E-017, -0.02000000000000000000 ) ) ;
#127 = CARTESIAN_POINT ( 'NONE',  ( 0.1562500000000000000, 0.0000000000000000000, -0.02000000000000000000 ) ) ;
#128 = DIRECTION ( 'NONE',  ( 1.000000000000000000, 0.0000000000000000000, 0.0000000000000000000 ) ) ;
#129 = DIRECTION ( 'NONE',  ( 0.0000000000000000000, 0.0000000000000000000, 1.000000000000000000 ) ) ;
#130 = AXIS2_PLACEMENT_3D ( 'NONE', #69, #129, #128 ) ;
#131 = CIRCLE ( 'NONE', #130, 0.1562500000000000000 ) ;
#132 = DIRECTION ( 'NONE',  ( 1.000000000000000000, 0.0000000000000000000, 0.0000000000000000000 ) ) ;
#133 = DIRECTION ( 'NONE',  ( 0.0000000000000000000, 0.0000000000000000000, 1.000000000000000000 ) ) ;
#134 =( LENGTH_UNIT ( ) NAMED_UNIT ( * ) SI_UNIT ( $, .METRE. ) );
#135 = ADVANCED_BREP_SHAPE_REPRESENTATION ( '90126A505', ( #252, #150 ), #136 ) ;
#136 =( GEOMETRIC_REPRESENTATION_CONTEXT ( 3 ) GLOBAL_UNCERTAINTY_ASSIGNED_CONTEXT ( ( #137 ) ) GLOBAL_UNIT_ASSIGNED_CONTEXT ( ( #138, #140, #139 ) ) REPRESENTATION_CONTEXT ( 'NONE', 'WORKASPACE' ) );
#137 = UNCERTAINTY_MEASURE_WITH_UNIT (LENGTH_MEASURE( 1.000000000000000100E-005 ), #138, 'distance_accuracy_value', 'NONE');
#138 =( CONVERSION_BASED_UNIT ( 'INCH', #143 ) LENGTH_UNIT ( ) NAMED_UNIT ( #141 ) );
#139 =( NAMED_UNIT ( * ) SI_UNIT ( $, .STERADIAN. ) SOLID_ANGLE_UNIT ( ) );
#140 =( NAMED_UNIT ( * ) PLANE_ANGLE_UNIT ( ) SI_UNIT ( $, .RADIAN. ) );
#141 = DIMENSIONAL_EXPONENTS ( 1.000000000000000000, 0.0000000000000000000, 0.0000000000000000000, 0.0000000000000000000, 0.0000000000000000000, 0.0000000000000000000, 0.0000000000000000000 ) ;
#142 = APPROVAL_STATUS ( 'not_yet_approved' ) ;
#143 = LENGTH_MEASURE_WITH_UNIT ( LENGTH_MEASURE( 0.02539999999999999900 ), #134 );
#144 = CARTESIAN_POINT ( 'NONE',  ( 0.0000000000000000000, 0.0000000000000000000, 0.0000000000000000000 ) ) ;
#145 = PRODUCT ( '90126A505', '90126A505', '', ( #146 ) ) ;
#146 = MECHANICAL_CONTEXT ( 'NONE', #148, 'mechanical' ) ;
#147 = APPLICATION_PROTOCOL_DEFINITION ( 'international standard', 'config_control_design', 1994, #148 ) ;
#148 = APPLICATION_CONTEXT ( 'configuration controlled 3d designs of mechanical parts and assemblies' ) ;
#149 = DIRECTION ( 'NONE',  ( 1.000000000000000000, 0.0000000000000000000, 0.0000000000000000000 ) ) ;
#150 = AXIS2_PLACEMENT_3D ( 'NONE', #144, #151, #149 ) ;
#151 = DIRECTION ( 'NONE',  ( 0.0000000000000000000, 0.0000000000000000000, 1.000000000000000000 ) ) ;
#152 = PERSON_AND_ORGANIZATION ( #28, #160 ) ;
#153 = PRODUCT_DEFINITION ( 'UNKNOWN', '', #188, #154 ) ;
#154 = DESIGN_CONTEXT ( 'detailed design', #156, 'design' ) ;
#155 = APPLICATION_PROTOCOL_DEFINITION ( 'international standard', 'config_control_design', 1994, #156 ) ;
#156 = APPLICATION_CONTEXT ( 'configuration controlled 3d designs of mechanical parts and assemblies' ) ;
#157 = PERSON_AND_ORGANIZATION ( #28, #160 ) ;
#158 = PERSON_AND_ORGANIZATION_ROLE ( 'design_owner' ) ;
#159 = CC_DESIGN_PERSON_AND_ORGANIZATION_ASSIGNMENT ( #157, #158, ( #145 ) ) ;
#160 = ORGANIZATION ( 'UNSPECIFIED', 'UNSPECIFIED', '' ) ;
#161 = APPROVAL ( #142, 'UNSPECIFIED' ) ;
#162 = APPROVAL_PERSON_ORGANIZATION ( #152, #161, #163 ) ;
#163 = APPROVAL_ROLE ( '' ) ;
#164 = DATE_AND_TIME ( #165, #166 ) ;
#165 = CALENDAR_DATE ( 2009, 20, 10 ) ;
#166 = LOCAL_TIME ( 10, 53, 26.00000000000000000, #167 ) ;
#167 = COORDINATED_UNIVERSAL_TIME_OFFSET ( 6, 0, .BEHIND. ) ;
#168 = CC_DESIGN_PERSON_AND_ORGANIZATION_ASSIGNMENT ( #170, #169, ( #153 ) ) ;
#169 = PERSON_AND_ORGANIZATION_ROLE ( 'creator' ) ;
#170 = PERSON_AND_ORGANIZATION ( #28, #160 ) ;
#171 = CC_DESIGN_APPROVAL ( #161, ( #153 ) ) ;
#172 = APPROVAL_DATE_TIME ( #173, #161 ) ;
#173 = DATE_AND_TIME ( #174, #175 ) ;
#174 = CALENDAR_DATE ( 2009, 20, 10 ) ;
#175 = LOCAL_TIME ( 10, 53, 26.00000000000000000, #176 ) ;
#176 = COORDINATED_UNIVERSAL_TIME_OFFSET ( 6, 0, .BEHIND. ) ;
#177 = CC_DESIGN_DATE_AND_TIME_ASSIGNMENT ( #164, #178, ( #153 ) ) ;
#178 = DATE_TIME_ROLE ( 'creation_date' ) ;
#179 = SHAPE_DEFINITION_REPRESENTATION ( #180, #135 ) ;
#180 = PRODUCT_DEFINITION_SHAPE ( 'NONE', 'NONE',  #153 ) ;
#181 = PRODUCT_RELATED_PRODUCT_CATEGORY ( 'detail', '', ( #145 ) ) ;
#182 = CC_DESIGN_SECURITY_CLASSIFICATION ( #209, ( #188 ) ) ;
#183 = DATE_AND_TIME ( #219, #220 ) ;
#184 = APPROVAL_ROLE ( '' ) ;
#185 = APPROVAL ( #186, 'UNSPECIFIED' ) ;
#186 = APPROVAL_STATUS ( 'not_yet_approved' ) ;
#187 = PERSON_AND_ORGANIZATION ( #28, #160 ) ;
#188 = PRODUCT_DEFINITION_FORMATION_WITH_SPECIFIED_SOURCE ( 'ANY', '', #145, .NOT_KNOWN. ) ;
#189 = CC_DESIGN_APPROVAL ( #197, ( #209 ) ) ;
#190 = APPROVAL_DATE_TIME ( #191, #197 ) ;
#191 = DATE_AND_TIME ( #192, #193 ) ;
#192 = CALENDAR_DATE ( 2009, 20, 10 ) ;
#193 = LOCAL_TIME ( 10, 53, 26.00000000000000000, #194 ) ;
#194 = COORDINATED_UNIVERSAL_TIME_OFFSET ( 6, 0, .BEHIND. ) ;
#195 = APPROVAL_PERSON_ORGANIZATION ( #199, #197, #196 ) ;
#196 = APPROVAL_ROLE ( '' ) ;
#197 = APPROVAL ( #198, 'UNSPECIFIED' ) ;
#198 = APPROVAL_STATUS ( 'not_yet_approved' ) ;
#199 = PERSON_AND_ORGANIZATION ( #28, #160 ) ;
#200 = CC_DESIGN_DATE_AND_TIME_ASSIGNMENT ( #202, #201, ( #209 ) ) ;
#201 = DATE_TIME_ROLE ( 'classification_date' ) ;
#202 = DATE_AND_TIME ( #203, #204 ) ;
#203 = CALENDAR_DATE ( 2009, 20, 10 ) ;
#204 = LOCAL_TIME ( 10, 53, 26.00000000000000000, #205 ) ;
#205 = COORDINATED_UNIVERSAL_TIME_OFFSET ( 6, 0, .BEHIND. ) ;
#206 = CC_DESIGN_PERSON_AND_ORGANIZATION_ASSIGNMENT ( #208, #207, ( #209 ) ) ;
#207 = PERSON_AND_ORGANIZATION_ROLE ( 'classification_officer' ) ;
#208 = PERSON_AND_ORGANIZATION ( #28, #160 ) ;
#209 = SECURITY_CLASSIFICATION ( '', '', #210 ) ;
#210 = SECURITY_CLASSIFICATION_LEVEL ( 'unclassified' ) ;
#211 = CC_DESIGN_PERSON_AND_ORGANIZATION_ASSIGNMENT ( #213, #212, ( #188 ) ) ;
#212 = PERSON_AND_ORGANIZATION_ROLE ( 'design_supplier' ) ;
#213 = PERSON_AND_ORGANIZATION ( #28, #160 ) ;
#214 = CC_DESIGN_PERSON_AND_ORGANIZATION_ASSIGNMENT ( #216, #215, ( #188 ) ) ;
#215 = PERSON_AND_ORGANIZATION_ROLE ( 'creator' ) ;
#216 = PERSON_AND_ORGANIZATION ( #28, #160 ) ;
#217 = CC_DESIGN_APPROVAL ( #185, ( #188 ) ) ;
#218 = APPROVAL_DATE_TIME ( #183, #185 ) ;
#219 = CALENDAR_DATE ( 2009, 20, 10 ) ;
#220 = LOCAL_TIME ( 10, 53, 26.00000000000000000, #221 ) ;
#221 = COORDINATED_UNIVERSAL_TIME_OFFSET ( 6, 0, .BEHIND. ) ;
#222 = APPROVAL_PERSON_ORGANIZATION ( #187, #185, #184 ) ;
#223 = ORIENTED_EDGE ( 'NONE', *, *, #224, .T. ) ;
#224 = EDGE_CURVE ( 'NONE', #225, #226, #131, .T. ) ;
#225 = VERTEX_POINT ( 'NONE', #127 ) ;
#226 = VERTEX_POINT ( 'NONE', #126 ) ;
#227 = ORIENTED_EDGE ( 'NONE', *, *, #228, .T. ) ;
#228 = EDGE_CURVE ( 'NONE', #226, #229, #125, .T. ) ;
#229 = VERTEX_POINT ( 'NONE', #121 ) ;
#230 = ORIENTED_EDGE ( 'NONE', *, *, #231, .F. ) ;
#231 = EDGE_CURVE ( 'NONE', #232, #229, #120, .T. ) ;
#232 = VERTEX_POINT ( 'NONE', #115 ) ;
#233 = ORIENTED_EDGE ( 'NONE', *, *, #234, .F. ) ;
#234 = EDGE_CURVE ( 'NONE', #225, #232, #114, .T. ) ;
#235 = ADVANCED_FACE ( 'NONE', ( #110 ), #108, .T. ) ;
#236 = EDGE_LOOP ( 'NONE', ( #14, #15, #6, #7 ) ) ;
#237 = ADVANCED_FACE ( 'NONE', ( #103 ), #102, .F. ) ;
#238 = ORIENTED_EDGE ( 'NONE', *, *, #239, .F. ) ;
#239 = EDGE_CURVE ( 'NONE', #240, #241, #63, .T. ) ;
#240 = VERTEX_POINT ( 'NONE', #59 ) ;
#241 = VERTEX_POINT ( 'NONE', #58 ) ;
#242 = ORIENTED_EDGE ( 'NONE', *, *, #243, .T. ) ;
#243 = EDGE_CURVE ( 'NONE', #240, #244, #57, .T. ) ;
#244 = VERTEX_POINT ( 'NONE', #53 ) ;
#245 = ORIENTED_EDGE ( 'NONE', *, *, #246, .T. ) ;
#246 = EDGE_CURVE ( 'NONE', #244, #247, #99, .T. ) ;
#247 = VERTEX_POINT ( 'NONE', #94 ) ;
#248 = ORIENTED_EDGE ( 'NONE', *, *, #249, .F. ) ;
#249 = EDGE_CURVE ( 'NONE', #241, #247, #93, .T. ) ;
#250 = ADVANCED_FACE ( 'NONE', ( #87 ), #49, .T. ) ;
#251 = EDGE_LOOP ( 'NONE', ( #238, #242, #245, #248 ) ) ;
#252 = MANIFOLD_SOLID_BREP ( 'NONE', #24 ) ;
ENDSEC;
END-ISO-10303-21;
