ISO-10303-21;
HEADER;
/****************************************************************
 * Generated by software with PDE/Lib inside                    *
 * PDElib Version v51a, created Thu 01/14/2010                  *
 * ITI Transcendata (http://www.transcendata.com/)              *
 ****************************************************************/
FILE_DESCRIPTION((''),'2;1');
FILE_NAME('S:\\Engineering\\Public\\Projects\\FlatPack 2\\FP2 19in 600 15 INCH DEEP\\Workspace\\111junk\\BSO-1032-10-ZI.stp','2012-07-02T08:04:35',('stlaus'),(''),'Autodesk Inventor 2011','Autodesk Inventor 2011','');
FILE_SCHEMA(('AUTOMOTIVE_DESIGN { 1 0 10303 214 1 1 1 1 }'));
ENDSEC;
DATA;
#5=APPLICATION_CONTEXT('automotive design');
#6=APPLICATION_PROTOCOL_DEFINITION('International Standard','automotive_design',2001,#5);
#7=PRODUCT_CONTEXT('',#5,'mechanical');
#8=PRODUCT('Assembly1','Assembly1',$,(#7));
#9=PRODUCT_RELATED_PRODUCT_CATEGORY('part',$,(#8));
#10=PRODUCT_DEFINITION_FORMATION('',$,#8);
#11=PRODUCT_DEFINITION_CONTEXT('part definition',#5,'design');
#12=PRODUCT_DEFINITION('',$,#10,#11);
#18=(NAMED_UNIT(*)PLANE_ANGLE_UNIT()SI_UNIT($,.RADIAN.));
#19=DIMENSIONAL_EXPONENTS(0.0,0.0,0.0,0.0,0.0,0.0,0.0);
#20=PLANE_ANGLE_MEASURE_WITH_UNIT(PLANE_ANGLE_MEASURE(0.017453292500000),#18);
#24=(CONVERSION_BASED_UNIT('DEGREE',#20)NAMED_UNIT(#19)PLANE_ANGLE_UNIT());
#28=(NAMED_UNIT(*)SI_UNIT($,.STERADIAN.)SOLID_ANGLE_UNIT());
#32=(LENGTH_UNIT()NAMED_UNIT(*)SI_UNIT(.CENTI.,.METRE.));
#33=DIMENSIONAL_EXPONENTS(1.0,0.0,0.0,0.0,0.0,0.0,0.0);
#34=LENGTH_MEASURE_WITH_UNIT(LENGTH_MEASURE(2.540000000000000),#32);
#38=(CONVERSION_BASED_UNIT('INCH',#34)LENGTH_UNIT()NAMED_UNIT(#33));
#40=UNCERTAINTY_MEASURE_WITH_UNIT(LENGTH_MEASURE(0.000393700787402),#38,'DISTANCE_ACCURACY_VALUE','');
#42=(GEOMETRIC_REPRESENTATION_CONTEXT(3)GLOBAL_UNCERTAINTY_ASSIGNED_CONTEXT((#40))GLOBAL_UNIT_ASSIGNED_CONTEXT((#24,#28,#38))REPRESENTATION_CONTEXT('None','None'));
#43=AXIS2_PLACEMENT_3D('',#44,#45,#46);
#44=CARTESIAN_POINT('',(0.0,0.0,0.0));
#45=DIRECTION('',(0.0,0.0,1.0));
#46=DIRECTION('',(1.0,0.0,0.0));
#47=SHAPE_REPRESENTATION('',(#43,#680),#42);
#48=PRODUCT_DEFINITION_SHAPE('','',#12);
#49=SHAPE_DEFINITION_REPRESENTATION(#48,#47);
#50=APPLICATION_CONTEXT('automotive design');
#51=APPLICATION_PROTOCOL_DEFINITION('International Standard','automotive_design',2001,#50);
#52=PRODUCT_CONTEXT('',#50,'mechanical');
#53=PRODUCT('BSO-032-10 PEM BLIND STANDOFF','BSO-032-10 PEM BLIND STANDOFF',$,(#52));
#54=PRODUCT_RELATED_PRODUCT_CATEGORY('part',$,(#53));
#55=PRODUCT_DEFINITION_FORMATION('',$,#53);
#56=PRODUCT_DEFINITION_CONTEXT('part definition',#50,'design');
#57=PRODUCT_DEFINITION('',$,#55,#56);
#63=(NAMED_UNIT(*)PLANE_ANGLE_UNIT()SI_UNIT($,.RADIAN.));
#64=DIMENSIONAL_EXPONENTS(0.0,0.0,0.0,0.0,0.0,0.0,0.0);
#65=PLANE_ANGLE_MEASURE_WITH_UNIT(PLANE_ANGLE_MEASURE(0.017453292500000),#63);
#69=(CONVERSION_BASED_UNIT('DEGREE',#65)NAMED_UNIT(#64)PLANE_ANGLE_UNIT());
#73=(NAMED_UNIT(*)SI_UNIT($,.STERADIAN.)SOLID_ANGLE_UNIT());
#77=(LENGTH_UNIT()NAMED_UNIT(*)SI_UNIT(.CENTI.,.METRE.));
#78=DIMENSIONAL_EXPONENTS(1.0,0.0,0.0,0.0,0.0,0.0,0.0);
#79=LENGTH_MEASURE_WITH_UNIT(LENGTH_MEASURE(2.540000000000000),#77);
#83=(CONVERSION_BASED_UNIT('INCH',#79)LENGTH_UNIT()NAMED_UNIT(#78));
#85=UNCERTAINTY_MEASURE_WITH_UNIT(LENGTH_MEASURE(0.000393700787402),#83,'DISTANCE_ACCURACY_VALUE','');
#87=(GEOMETRIC_REPRESENTATION_CONTEXT(3)GLOBAL_UNCERTAINTY_ASSIGNED_CONTEXT((#85))GLOBAL_UNIT_ASSIGNED_CONTEXT((#69,#73,#83))REPRESENTATION_CONTEXT('None','None'));
#88=AXIS2_PLACEMENT_3D('',#89,#90,#91);
#89=CARTESIAN_POINT('',(0.0,0.0,0.0));
#90=DIRECTION('',(0.0,0.0,1.0));
#91=DIRECTION('',(1.0,0.0,0.0));
#92=SHAPE_REPRESENTATION('',(#88),#87);
#93=PRODUCT_DEFINITION_SHAPE('','',#57);
#94=SHAPE_DEFINITION_REPRESENTATION(#93,#92);
#100=(NAMED_UNIT(*)PLANE_ANGLE_UNIT()SI_UNIT($,.RADIAN.));
#101=DIMENSIONAL_EXPONENTS(0.0,0.0,0.0,0.0,0.0,0.0,0.0);
#102=PLANE_ANGLE_MEASURE_WITH_UNIT(PLANE_ANGLE_MEASURE(0.017453292500000),#100);
#106=(CONVERSION_BASED_UNIT('DEGREE',#102)NAMED_UNIT(#101)PLANE_ANGLE_UNIT());
#110=(NAMED_UNIT(*)SI_UNIT($,.STERADIAN.)SOLID_ANGLE_UNIT());
#114=(LENGTH_UNIT()NAMED_UNIT(*)SI_UNIT(.MILLI.,.METRE.));
#116=UNCERTAINTY_MEASURE_WITH_UNIT(LENGTH_MEASURE(0.000001000000000),#114,'DISTANCE_ACCURACY_VALUE','');
#118=(GEOMETRIC_REPRESENTATION_CONTEXT(3)GLOBAL_UNCERTAINTY_ASSIGNED_CONTEXT((#116))GLOBAL_UNIT_ASSIGNED_CONTEXT((#106,#110,#114))REPRESENTATION_CONTEXT('','3D'));
#119=CARTESIAN_POINT('',(0.0,0.0,0.308500000000000));
#120=DIRECTION('',(0.0,0.0,1.0));
#121=DIRECTION('',(-1.0,0.0,0.0));
#122=AXIS2_PLACEMENT_3D('',#119,#120,#121);
#123=CONICAL_SURFACE('',#122,0.099000000000000,45.000000000000007);
#124=CARTESIAN_POINT('',(0.095000000000000,-1.163376E-017,0.304500000000000));
#125=VERTEX_POINT('',#124);
#126=CARTESIAN_POINT('',(0.0,0.0,0.304500000000000));
#127=DIRECTION('',(0.0,0.0,-1.0));
#128=DIRECTION('',(-1.0,0.0,0.0));
#129=AXIS2_PLACEMENT_3D('',#126,#127,#128);
#130=CIRCLE('',#129,0.095000000000000);
#131=EDGE_CURVE('',#125,#125,#130,.T.);
#132=ORIENTED_EDGE('',*,*,#131,.T.);
#133=EDGE_LOOP('',(#132));
#134=FACE_OUTER_BOUND('',#133,.T.);
#135=CARTESIAN_POINT('',(0.103000000000000,1.261345E-017,0.312500000000000));
#136=VERTEX_POINT('',#135);
#137=CARTESIAN_POINT('',(0.0,0.0,0.312500000000000));
#138=DIRECTION('',(0.0,0.0,1.0));
#139=DIRECTION('',(-1.0,0.0,0.0));
#140=AXIS2_PLACEMENT_3D('',#137,#138,#139);
#141=CIRCLE('',#140,0.103000000000000);
#142=EDGE_CURVE('',#136,#136,#141,.T.);
#143=ORIENTED_EDGE('',*,*,#142,.T.);
#144=EDGE_LOOP('',(#143));
#145=FACE_BOUND('',#144,.T.);
#146=ADVANCED_FACE('',(#134,#145),#123,.F.);
#147=CARTESIAN_POINT('',(0.0,0.0,0.312500000000000));
#148=DIRECTION('',(0.0,0.0,-1.0));
#149=DIRECTION('',(-1.0,0.0,0.0));
#150=AXIS2_PLACEMENT_3D('',#147,#148,#149);
#151=PLANE('',#150);
#152=CARTESIAN_POINT('',(0.137000000000000,-1.677711E-017,0.312500000000000));
#153=VERTEX_POINT('',#152);
#154=CARTESIAN_POINT('',(0.0,0.0,0.312500000000000));
#155=DIRECTION('',(0.0,0.0,-1.0));
#156=DIRECTION('',(-1.0,0.0,0.0));
#157=AXIS2_PLACEMENT_3D('',#154,#155,#156);
#158=CIRCLE('',#157,0.137000000000000);
#159=EDGE_CURVE('',#153,#153,#158,.T.);
#160=ORIENTED_EDGE('',*,*,#159,.F.);
#161=EDGE_LOOP('',(#160));
#162=FACE_OUTER_BOUND('',#161,.T.);
#163=ORIENTED_EDGE('',*,*,#142,.F.);
#164=EDGE_LOOP('',(#163));
#165=FACE_BOUND('',#164,.T.);
#166=ADVANCED_FACE('',(#162,#165),#151,.F.);
#167=CARTESIAN_POINT('',(0.0,0.0,0.184500000000000));
#168=DIRECTION('',(0.0,0.0,1.0));
#169=DIRECTION('',(1.0,0.0,0.0));
#170=AXIS2_PLACEMENT_3D('',#167,#168,#169);
#171=CYLINDRICAL_SURFACE('',#170,0.095000000000000);
#172=CARTESIAN_POINT('',(0.095000000000000,0.0,0.056500000000000));
#173=VERTEX_POINT('',#172);
#174=CARTESIAN_POINT('',(0.0,0.0,0.056500000000000));
#175=DIRECTION('',(0.0,0.0,1.0));
#176=DIRECTION('',(1.0,0.0,0.0));
#177=AXIS2_PLACEMENT_3D('',#174,#175,#176);
#178=CIRCLE('',#177,0.095000000000000);
#179=EDGE_CURVE('',#173,#173,#178,.T.);
#180=ORIENTED_EDGE('',*,*,#179,.F.);
#181=EDGE_LOOP('',(#180));
#182=FACE_OUTER_BOUND('',#181,.T.);
#183=ORIENTED_EDGE('',*,*,#131,.F.);
#184=EDGE_LOOP('',(#183));
#185=FACE_BOUND('',#184,.T.);
#186=ADVANCED_FACE('',(#182,#185),#171,.F.);
#187=CARTESIAN_POINT('',(0.0,0.0,0.311000000000000));
#188=DIRECTION('',(0.0,0.0,-1.0));
#189=DIRECTION('',(-1.0,0.0,0.0));
#190=AXIS2_PLACEMENT_3D('',#187,#188,#189);
#191=CONICAL_SURFACE('',#190,0.138500000000000,45.000000000000206);
#192=ORIENTED_EDGE('',*,*,#159,.T.);
#193=EDGE_LOOP('',(#192));
#194=FACE_OUTER_BOUND('',#193,.T.);
#195=CARTESIAN_POINT('',(0.140000000000000,1.714449E-017,0.309500000000000));
#196=VERTEX_POINT('',#195);
#197=CARTESIAN_POINT('',(0.0,0.0,0.309500000000000));
#198=DIRECTION('',(0.0,0.0,1.0));
#199=DIRECTION('',(-1.0,0.0,0.0));
#200=AXIS2_PLACEMENT_3D('',#197,#198,#199);
#201=CIRCLE('',#200,0.140000000000000);
#202=EDGE_CURVE('',#196,#196,#201,.T.);
#203=ORIENTED_EDGE('',*,*,#202,.T.);
#204=EDGE_LOOP('',(#203));
#205=FACE_BOUND('',#204,.T.);
#206=ADVANCED_FACE('',(#194,#205),#191,.T.);
#207=CARTESIAN_POINT('',(0.0,0.0,0.0));
#208=DIRECTION('',(0.0,0.0,1.0));
#209=DIRECTION('',(-1.0,0.0,0.0));
#210=AXIS2_PLACEMENT_3D('',#207,#208,#209);
#211=CYLINDRICAL_SURFACE('',#210,0.140000000000000);
#212=CARTESIAN_POINT('',(0.0,-0.140000000000000,0.102500000000000));
#213=VERTEX_POINT('',#212);
#214=CARTESIAN_POINT('',(0.0,0.0,0.102500000000000));
#215=DIRECTION('',(0.0,0.0,1.0));
#216=DIRECTION('',(-1.0,0.0,0.0));
#217=AXIS2_PLACEMENT_3D('',#214,#215,#216);
#218=CIRCLE('',#217,0.140000000000000);
#219=EDGE_CURVE('',#213,#213,#218,.T.);
#220=ORIENTED_EDGE('',*,*,#219,.T.);
#221=EDGE_LOOP('',(#220));
#222=FACE_OUTER_BOUND('',#221,.T.);
#223=ORIENTED_EDGE('',*,*,#202,.F.);
#224=EDGE_LOOP('',(#223));
#225=FACE_BOUND('',#224,.T.);
#226=ADVANCED_FACE('',(#222,#225),#211,.T.);
#227=CARTESIAN_POINT('',(0.0,0.0,0.027959120596191));
#228=DIRECTION('',(0.0,0.0,1.0));
#229=DIRECTION('',(1.0,0.0,0.0));
#230=AXIS2_PLACEMENT_3D('',#227,#228,#229);
#231=CONICAL_SURFACE('',#230,0.047500000000000,59.000000000000007);
#232=CARTESIAN_POINT('',(-0.000968209247196,-1.185675E-019,0.0));
#233=VERTEX_POINT('',#232);
#234=CARTESIAN_POINT('',(0.0,0.0,0.0));
#235=DIRECTION('',(0.0,0.0,1.0));
#236=DIRECTION('',(1.0,0.0,0.0));
#237=AXIS2_PLACEMENT_3D('',#234,#235,#236);
#238=CIRCLE('',#237,0.000968209247196);
#239=EDGE_CURVE('',#233,#233,#238,.T.);
#240=ORIENTED_EDGE('',*,*,#239,.F.);
#241=EDGE_LOOP('',(#240));
#242=FACE_OUTER_BOUND('',#241,.T.);
#243=ORIENTED_EDGE('',*,*,#179,.T.);
#244=EDGE_LOOP('',(#243));
#245=FACE_BOUND('',#244,.T.);
#246=ADVANCED_FACE('',(#242,#245),#231,.F.);
#247=CARTESIAN_POINT('',(0.0,0.0,0.097500000000000));
#248=DIRECTION('',(0.0,0.0,-1.0));
#249=DIRECTION('',(0.0,-1.0,0.0));
#250=AXIS2_PLACEMENT_3D('',#247,#248,#249);
#251=CYLINDRICAL_SURFACE('',#250,0.130000000000000);
#252=CARTESIAN_POINT('',(0.0,-0.130000000000000,0.102500000000000));
#253=VERTEX_POINT('',#252);
#254=CARTESIAN_POINT('',(0.0,0.0,0.102500000000000));
#255=DIRECTION('',(0.0,0.0,-1.0));
#256=DIRECTION('',(0.0,-1.0,0.0));
#257=AXIS2_PLACEMENT_3D('',#254,#255,#256);
#258=CIRCLE('',#257,0.130000000000000);
#259=EDGE_CURVE('',#253,#253,#258,.T.);
#260=ORIENTED_EDGE('',*,*,#259,.T.);
#261=EDGE_LOOP('',(#260));
#262=FACE_OUTER_BOUND('',#261,.T.);
#263=CARTESIAN_POINT('',(0.0,-0.130000000000000,0.092500000000000));
#264=VERTEX_POINT('',#263);
#265=CARTESIAN_POINT('',(0.0,0.0,0.092500000000000));
#266=DIRECTION('',(0.0,0.0,-1.0));
#267=DIRECTION('',(0.0,-1.0,0.0));
#268=AXIS2_PLACEMENT_3D('',#265,#266,#267);
#269=CIRCLE('',#268,0.130000000000000);
#270=EDGE_CURVE('',#264,#264,#269,.T.);
#271=ORIENTED_EDGE('',*,*,#270,.F.);
#272=EDGE_LOOP('',(#271));
#273=FACE_BOUND('',#272,.T.);
#274=ADVANCED_FACE('',(#262,#273),#251,.T.);
#275=CARTESIAN_POINT('',(0.0,-0.135000000000000,0.102500000000000));
#276=DIRECTION('',(0.0,0.0,1.0));
#277=DIRECTION('',(1.0,0.0,0.0));
#278=AXIS2_PLACEMENT_3D('',#275,#276,#277);
#279=PLANE('',#278);
#280=ORIENTED_EDGE('',*,*,#219,.F.);
#281=EDGE_LOOP('',(#280));
#282=FACE_OUTER_BOUND('',#281,.T.);
#283=ORIENTED_EDGE('',*,*,#259,.F.);
#284=EDGE_LOOP('',(#283));
#285=FACE_BOUND('',#284,.T.);
#286=ADVANCED_FACE('',(#282,#285),#279,.F.);
#287=CARTESIAN_POINT('',(0.0,-0.135000000000000,0.092500000000000));
#288=DIRECTION('',(0.0,0.0,-1.0));
#289=DIRECTION('',(-1.0,0.0,0.0));
#290=AXIS2_PLACEMENT_3D('',#287,#288,#289);
#291=PLANE('',#290);
#292=CARTESIAN_POINT('',(0.0,-0.140000000000000,0.092500000000000));
#293=VERTEX_POINT('',#292);
#294=CARTESIAN_POINT('',(0.0,0.0,0.092500000000000));
#295=DIRECTION('',(0.0,0.0,-1.0));
#296=DIRECTION('',(-1.0,0.0,0.0));
#297=AXIS2_PLACEMENT_3D('',#294,#295,#296);
#298=CIRCLE('',#297,0.140000000000000);
#299=EDGE_CURVE('',#293,#293,#298,.T.);
#300=ORIENTED_EDGE('',*,*,#299,.F.);
#301=EDGE_LOOP('',(#300));
#302=FACE_OUTER_BOUND('',#301,.T.);
#303=ORIENTED_EDGE('',*,*,#270,.T.);
#304=EDGE_LOOP('',(#303));
#305=FACE_BOUND('',#304,.T.);
#306=ADVANCED_FACE('',(#302,#305),#291,.F.);
#307=CARTESIAN_POINT('',(0.0,0.0,0.0));
#308=DIRECTION('',(0.0,0.0,1.0));
#309=DIRECTION('',(-1.0,0.0,0.0));
#310=AXIS2_PLACEMENT_3D('',#307,#308,#309);
#311=CYLINDRICAL_SURFACE('',#310,0.140000000000000);
#312=CARTESIAN_POINT('',(0.0,-0.140000000000000,0.080000000000000));
#313=VERTEX_POINT('',#312);
#314=CARTESIAN_POINT('',(0.0,0.0,0.080000000000000));
#315=DIRECTION('',(0.0,0.0,1.0));
#316=DIRECTION('',(-1.0,0.0,0.0));
#317=AXIS2_PLACEMENT_3D('',#314,#315,#316);
#318=CIRCLE('',#317,0.140000000000000);
#319=EDGE_CURVE('',#313,#313,#318,.T.);
#320=ORIENTED_EDGE('',*,*,#319,.T.);
#321=EDGE_LOOP('',(#320));
#322=FACE_OUTER_BOUND('',#321,.T.);
#323=ORIENTED_EDGE('',*,*,#299,.T.);
#324=EDGE_LOOP('',(#323));
#325=FACE_BOUND('',#324,.T.);
#326=ADVANCED_FACE('',(#322,#325),#311,.T.);
#327=CARTESIAN_POINT('',(0.0,0.0,0.075000000000000));
#328=DIRECTION('',(0.0,0.0,-1.0));
#329=DIRECTION('',(0.0,-1.0,0.0));
#330=AXIS2_PLACEMENT_3D('',#327,#328,#329);
#331=CYLINDRICAL_SURFACE('',#330,0.130000000000000);
#332=CARTESIAN_POINT('',(0.0,-0.130000000000000,0.080000000000000));
#333=VERTEX_POINT('',#332);
#334=CARTESIAN_POINT('',(0.0,0.0,0.080000000000000));
#335=DIRECTION('',(0.0,0.0,-1.0));
#336=DIRECTION('',(0.0,-1.0,0.0));
#337=AXIS2_PLACEMENT_3D('',#334,#335,#336);
#338=CIRCLE('',#337,0.130000000000000);
#339=EDGE_CURVE('',#333,#333,#338,.T.);
#340=ORIENTED_EDGE('',*,*,#339,.T.);
#341=EDGE_LOOP('',(#340));
#342=FACE_OUTER_BOUND('',#341,.T.);
#343=CARTESIAN_POINT('',(0.0,-0.130000000000000,0.070000000000000));
#344=VERTEX_POINT('',#343);
#345=CARTESIAN_POINT('',(0.0,0.0,0.070000000000000));
#346=DIRECTION('',(0.0,0.0,-1.0));
#347=DIRECTION('',(0.0,-1.0,0.0));
#348=AXIS2_PLACEMENT_3D('',#345,#346,#347);
#349=CIRCLE('',#348,0.130000000000000);
#350=EDGE_CURVE('',#344,#344,#349,.T.);
#351=ORIENTED_EDGE('',*,*,#350,.F.);
#352=EDGE_LOOP('',(#351));
#353=FACE_BOUND('',#352,.T.);
#354=ADVANCED_FACE('',(#342,#353),#331,.T.);
#355=CARTESIAN_POINT('',(0.0,-0.135000000000000,0.080000000000000));
#356=DIRECTION('',(0.0,0.0,1.0));
#357=DIRECTION('',(1.0,0.0,0.0));
#358=AXIS2_PLACEMENT_3D('',#355,#356,#357);
#359=PLANE('',#358);
#360=ORIENTED_EDGE('',*,*,#319,.F.);
#361=EDGE_LOOP('',(#360));
#362=FACE_OUTER_BOUND('',#361,.T.);
#363=ORIENTED_EDGE('',*,*,#339,.F.);
#364=EDGE_LOOP('',(#363));
#365=FACE_BOUND('',#364,.T.);
#366=ADVANCED_FACE('',(#362,#365),#359,.F.);
#367=CARTESIAN_POINT('',(0.0,-0.135000000000000,0.070000000000000));
#368=DIRECTION('',(0.0,0.0,-1.0));
#369=DIRECTION('',(-1.0,0.0,0.0));
#370=AXIS2_PLACEMENT_3D('',#367,#368,#369);
#371=PLANE('',#370);
#372=CARTESIAN_POINT('',(0.0,-0.140000000000000,0.070000000000000));
#373=VERTEX_POINT('',#372);
#374=CARTESIAN_POINT('',(0.0,0.0,0.070000000000000));
#375=DIRECTION('',(0.0,0.0,-1.0));
#376=DIRECTION('',(-1.0,0.0,0.0));
#377=AXIS2_PLACEMENT_3D('',#374,#375,#376);
#378=CIRCLE('',#377,0.140000000000000);
#379=EDGE_CURVE('',#373,#373,#378,.T.);
#380=ORIENTED_EDGE('',*,*,#379,.F.);
#381=EDGE_LOOP('',(#380));
#382=FACE_OUTER_BOUND('',#381,.T.);
#383=ORIENTED_EDGE('',*,*,#350,.T.);
#384=EDGE_LOOP('',(#383));
#385=FACE_BOUND('',#384,.T.);
#386=ADVANCED_FACE('',(#382,#385),#371,.F.);
#387=CARTESIAN_POINT('',(0.0,0.0,0.0));
#388=DIRECTION('',(0.0,0.0,1.0));
#389=DIRECTION('',(-1.0,0.0,0.0));
#390=AXIS2_PLACEMENT_3D('',#387,#388,#389);
#391=CYLINDRICAL_SURFACE('',#390,0.140000000000000);
#392=CARTESIAN_POINT('',(0.0,-0.140000000000000,0.055000000000000));
#393=VERTEX_POINT('',#392);
#394=CARTESIAN_POINT('',(0.0,0.0,0.055000000000000));
#395=DIRECTION('',(0.0,0.0,1.0));
#396=DIRECTION('',(-1.0,0.0,0.0));
#397=AXIS2_PLACEMENT_3D('',#394,#395,#396);
#398=CIRCLE('',#397,0.140000000000000);
#399=EDGE_CURVE('',#393,#393,#398,.T.);
#400=ORIENTED_EDGE('',*,*,#399,.T.);
#401=EDGE_LOOP('',(#400));
#402=FACE_OUTER_BOUND('',#401,.T.);
#403=ORIENTED_EDGE('',*,*,#379,.T.);
#404=EDGE_LOOP('',(#403));
#405=FACE_BOUND('',#404,.T.);
#406=ADVANCED_FACE('',(#402,#405),#391,.T.);
#407=CARTESIAN_POINT('',(0.0,0.0,0.040000000000000));
#408=DIRECTION('',(0.0,0.0,-1.0));
#409=DIRECTION('',(0.0,-1.0,0.0));
#410=AXIS2_PLACEMENT_3D('',#407,#408,#409);
#411=CYLINDRICAL_SURFACE('',#410,0.120000000000000);
#412=CARTESIAN_POINT('',(0.0,-0.120000000000000,0.055000000000000));
#413=VERTEX_POINT('',#412);
#414=CARTESIAN_POINT('',(0.0,0.0,0.055000000000000));
#415=DIRECTION('',(0.0,0.0,-1.0));
#416=DIRECTION('',(0.0,-1.0,0.0));
#417=AXIS2_PLACEMENT_3D('',#414,#415,#416);
#418=CIRCLE('',#417,0.120000000000000);
#419=EDGE_CURVE('',#413,#413,#418,.T.);
#420=ORIENTED_EDGE('',*,*,#419,.T.);
#421=EDGE_LOOP('',(#420));
#422=FACE_OUTER_BOUND('',#421,.T.);
#423=CARTESIAN_POINT('',(0.0,-0.120000000000000,0.025000000000000));
#424=VERTEX_POINT('',#423);
#425=CARTESIAN_POINT('',(0.0,0.0,0.025000000000000));
#426=DIRECTION('',(0.0,0.0,-1.0));
#427=DIRECTION('',(0.0,-1.0,0.0));
#428=AXIS2_PLACEMENT_3D('',#425,#426,#427);
#429=CIRCLE('',#428,0.120000000000000);
#430=EDGE_CURVE('',#424,#424,#429,.T.);
#431=ORIENTED_EDGE('',*,*,#430,.F.);
#432=EDGE_LOOP('',(#431));
#433=FACE_BOUND('',#432,.T.);
#434=ADVANCED_FACE('',(#422,#433),#411,.T.);
#435=CARTESIAN_POINT('',(0.0,-0.130000000000000,0.055000000000000));
#436=DIRECTION('',(0.0,0.0,1.0));
#437=DIRECTION('',(1.0,0.0,0.0));
#438=AXIS2_PLACEMENT_3D('',#435,#436,#437);
#439=PLANE('',#438);
#440=ORIENTED_EDGE('',*,*,#399,.F.);
#441=EDGE_LOOP('',(#440));
#442=FACE_OUTER_BOUND('',#441,.T.);
#443=ORIENTED_EDGE('',*,*,#419,.F.);
#444=EDGE_LOOP('',(#443));
#445=FACE_BOUND('',#444,.T.);
#446=ADVANCED_FACE('',(#442,#445),#439,.F.);
#447=CARTESIAN_POINT('',(1.158966E-017,5.463696E-018,0.025000000000000));
#448=DIRECTION('',(0.0,0.0,1.0));
#449=DIRECTION('',(1.0,0.0,0.0));
#450=AXIS2_PLACEMENT_3D('',#447,#448,#449);
#451=PLANE('',#450);
#452=CARTESIAN_POINT('',(-0.090066641993582,0.156000000000000,0.025000000000000));
#453=VERTEX_POINT('',#452);
#454=CARTESIAN_POINT('',(0.090066641993582,0.156000000000000,0.025000000000000));
#455=VERTEX_POINT('',#454);
#456=CARTESIAN_POINT('',(-0.090066641993582,0.156000000000000,0.025000000000000));
#457=DIRECTION('',(1.0,0.0,0.0));
#458=VECTOR('',#457,0.180133283987163);
#459=LINE('',#456,#458);
#460=EDGE_CURVE('',#453,#455,#459,.T.);
#461=ORIENTED_EDGE('',*,*,#460,.F.);
#462=CARTESIAN_POINT('',(-0.180133283987163,-8.326379E-017,0.025000000000000));
#463=VERTEX_POINT('',#462);
#464=CARTESIAN_POINT('',(-0.180133283987163,-1.110223E-016,0.025000000000000));
#465=DIRECTION('',(0.500000000000000,0.866025403784439,0.0));
#466=VECTOR('',#465,0.180133283987163);
#467=LINE('',#464,#466);
#468=EDGE_CURVE('',#463,#453,#467,.T.);
#469=ORIENTED_EDGE('',*,*,#468,.F.);
#470=CARTESIAN_POINT('',(-0.090066641993582,-0.156000000000000,0.025000000000000));
#471=VERTEX_POINT('',#470);
#472=CARTESIAN_POINT('',(-0.090066641993582,-0.156000000000000,0.025000000000000));
#473=DIRECTION('',(-0.500000000000000,0.866025403784438,0.0));
#474=VECTOR('',#473,0.180133283987163);
#475=LINE('',#472,#474);
#476=EDGE_CURVE('',#471,#463,#475,.T.);
#477=ORIENTED_EDGE('',*,*,#476,.F.);
#478=CARTESIAN_POINT('',(0.090066641993582,-0.156000000000000,0.025000000000000));
#479=VERTEX_POINT('',#478);
#480=CARTESIAN_POINT('',(0.090066641993582,-0.156000000000000,0.025000000000000));
#481=DIRECTION('',(-1.0,0.0,0.0));
#482=VECTOR('',#481,0.180133283987163);
#483=LINE('',#480,#482);
#484=EDGE_CURVE('',#479,#471,#483,.T.);
#485=ORIENTED_EDGE('',*,*,#484,.F.);
#486=CARTESIAN_POINT('',(0.180133283987163,5.048162E-017,0.025000000000000));
#487=VERTEX_POINT('',#486);
#488=CARTESIAN_POINT('',(0.180133283987163,8.326673E-017,0.025000000000000));
#489=DIRECTION('',(-0.500000000000000,-0.866025403784439,0.0));
#490=VECTOR('',#489,0.180133283987163);
#491=LINE('',#488,#490);
#492=EDGE_CURVE('',#487,#479,#491,.T.);
#493=ORIENTED_EDGE('',*,*,#492,.F.);
#494=CARTESIAN_POINT('',(0.090066641993582,0.156000000000000,0.025000000000000));
#495=DIRECTION('',(0.500000000000000,-0.866025403784439,0.0));
#496=VECTOR('',#495,0.180133283987163);
#497=LINE('',#494,#496);
#498=EDGE_CURVE('',#455,#487,#497,.T.);
#499=ORIENTED_EDGE('',*,*,#498,.F.);
#500=EDGE_LOOP('',(#461,#469,#477,#485,#493,#499));
#501=FACE_OUTER_BOUND('',#500,.T.);
#502=ORIENTED_EDGE('',*,*,#430,.T.);
#503=EDGE_LOOP('',(#502));
#504=FACE_BOUND('',#503,.T.);
#505=ADVANCED_FACE('',(#501,#504),#451,.T.);
#506=CARTESIAN_POINT('',(-0.090066641993582,0.156000000000000,0.0));
#507=DIRECTION('',(0.0,1.0,0.0));
#508=DIRECTION('',(0.0,0.0,1.0));
#509=AXIS2_PLACEMENT_3D('',#506,#507,#508);
#510=PLANE('',#509);
#511=ORIENTED_EDGE('',*,*,#460,.T.);
#512=CARTESIAN_POINT('',(0.090066641993582,0.156000000000000,0.0));
#513=VERTEX_POINT('',#512);
#514=CARTESIAN_POINT('',(0.090066641993582,0.156000000000000,0.0));
#515=DIRECTION('',(0.0,0.0,1.0));
#516=VECTOR('',#515,0.025000000000000);
#517=LINE('',#514,#516);
#518=EDGE_CURVE('',#513,#455,#517,.T.);
#519=ORIENTED_EDGE('',*,*,#518,.F.);
#520=CARTESIAN_POINT('',(-0.090066641993582,0.156000000000000,0.0));
#521=VERTEX_POINT('',#520);
#522=CARTESIAN_POINT('',(0.090066641993582,0.156000000000000,0.0));
#523=DIRECTION('',(-1.0,0.0,0.0));
#524=VECTOR('',#523,0.180133283987163);
#525=LINE('',#522,#524);
#526=EDGE_CURVE('',#513,#521,#525,.T.);
#527=ORIENTED_EDGE('',*,*,#526,.T.);
#528=CARTESIAN_POINT('',(-0.090066641993582,0.156000000000000,0.0));
#529=DIRECTION('',(0.0,0.0,1.0));
#530=VECTOR('',#529,0.025000000000000);
#531=LINE('',#528,#530);
#532=EDGE_CURVE('',#521,#453,#531,.T.);
#533=ORIENTED_EDGE('',*,*,#532,.T.);
#534=EDGE_LOOP('',(#511,#519,#527,#533));
#535=FACE_OUTER_BOUND('',#534,.T.);
#536=ADVANCED_FACE('',(#535),#510,.T.);
#537=CARTESIAN_POINT('',(0.090066641993582,0.156000000000000,0.0));
#538=DIRECTION('',(0.866025403784439,0.500000000000000,0.0));
#539=DIRECTION('',(0.0,0.0,-1.0));
#540=AXIS2_PLACEMENT_3D('',#537,#538,#539);
#541=PLANE('',#540);
#542=ORIENTED_EDGE('',*,*,#498,.T.);
#543=CARTESIAN_POINT('',(0.180133283987163,5.048162E-017,0.0));
#544=VERTEX_POINT('',#543);
#545=CARTESIAN_POINT('',(0.180133283987163,5.048162E-017,0.0));
#546=DIRECTION('',(0.0,0.0,1.0));
#547=VECTOR('',#546,0.025000000000000);
#548=LINE('',#545,#547);
#549=EDGE_CURVE('',#544,#487,#548,.T.);
#550=ORIENTED_EDGE('',*,*,#549,.F.);
#551=CARTESIAN_POINT('',(0.180133283987163,5.048162E-017,0.0));
#552=DIRECTION('',(-0.500000000000000,0.866025403784439,0.0));
#553=VECTOR('',#552,0.180133283987163);
#554=LINE('',#551,#553);
#555=EDGE_CURVE('',#544,#513,#554,.T.);
#556=ORIENTED_EDGE('',*,*,#555,.T.);
#557=ORIENTED_EDGE('',*,*,#518,.T.);
#558=EDGE_LOOP('',(#542,#550,#556,#557));
#559=FACE_OUTER_BOUND('',#558,.T.);
#560=ADVANCED_FACE('',(#559),#541,.T.);
#561=CARTESIAN_POINT('',(0.180133283987163,5.048162E-017,0.0));
#562=DIRECTION('',(0.866025403784439,-0.500000000000000,0.0));
#563=DIRECTION('',(0.0,0.0,-1.0));
#564=AXIS2_PLACEMENT_3D('',#561,#562,#563);
#565=PLANE('',#564);
#566=ORIENTED_EDGE('',*,*,#492,.T.);
#567=CARTESIAN_POINT('',(0.090066641993582,-0.156000000000000,0.0));
#568=VERTEX_POINT('',#567);
#569=CARTESIAN_POINT('',(0.090066641993582,-0.156000000000000,0.0));
#570=DIRECTION('',(0.0,0.0,1.0));
#571=VECTOR('',#570,0.025000000000000);
#572=LINE('',#569,#571);
#573=EDGE_CURVE('',#568,#479,#572,.T.);
#574=ORIENTED_EDGE('',*,*,#573,.F.);
#575=CARTESIAN_POINT('',(0.090066641993582,-0.156000000000000,0.0));
#576=DIRECTION('',(0.500000000000000,0.866025403784439,0.0));
#577=VECTOR('',#576,0.180133283987163);
#578=LINE('',#575,#577);
#579=EDGE_CURVE('',#568,#544,#578,.T.);
#580=ORIENTED_EDGE('',*,*,#579,.T.);
#581=ORIENTED_EDGE('',*,*,#549,.T.);
#582=EDGE_LOOP('',(#566,#574,#580,#581));
#583=FACE_OUTER_BOUND('',#582,.T.);
#584=ADVANCED_FACE('',(#583),#565,.T.);
#585=CARTESIAN_POINT('',(0.090066641993582,-0.156000000000000,0.0));
#586=DIRECTION('',(0.0,-1.0,0.0));
#587=DIRECTION('',(0.0,0.0,-1.0));
#588=AXIS2_PLACEMENT_3D('',#585,#586,#587);
#589=PLANE('',#588);
#590=ORIENTED_EDGE('',*,*,#484,.T.);
#591=CARTESIAN_POINT('',(-0.090066641993582,-0.156000000000000,0.0));
#592=VERTEX_POINT('',#591);
#593=CARTESIAN_POINT('',(-0.090066641993582,-0.156000000000000,0.0));
#594=DIRECTION('',(0.0,0.0,1.0));
#595=VECTOR('',#594,0.025000000000000);
#596=LINE('',#593,#595);
#597=EDGE_CURVE('',#592,#471,#596,.T.);
#598=ORIENTED_EDGE('',*,*,#597,.F.);
#599=CARTESIAN_POINT('',(-0.090066641993582,-0.156000000000000,0.0));
#600=DIRECTION('',(1.0,0.0,0.0));
#601=VECTOR('',#600,0.180133283987163);
#602=LINE('',#599,#601);
#603=EDGE_CURVE('',#592,#568,#602,.T.);
#604=ORIENTED_EDGE('',*,*,#603,.T.);
#605=ORIENTED_EDGE('',*,*,#573,.T.);
#606=EDGE_LOOP('',(#590,#598,#604,#605));
#607=FACE_OUTER_BOUND('',#606,.T.);
#608=ADVANCED_FACE('',(#607),#589,.T.);
#609=CARTESIAN_POINT('',(-0.090066641993582,-0.156000000000000,0.0));
#610=DIRECTION('',(-0.866025403784438,-0.500000000000000,0.0));
#611=DIRECTION('',(0.0,0.0,1.0));
#612=AXIS2_PLACEMENT_3D('',#609,#610,#611);
#613=PLANE('',#612);
#614=ORIENTED_EDGE('',*,*,#476,.T.);
#615=CARTESIAN_POINT('',(-0.180133283987163,-8.326379E-017,0.0));
#616=VERTEX_POINT('',#615);
#617=CARTESIAN_POINT('',(-0.180133283987163,-8.326379E-017,0.0));
#618=DIRECTION('',(0.0,0.0,1.0));
#619=VECTOR('',#618,0.025000000000000);
#620=LINE('',#617,#619);
#621=EDGE_CURVE('',#616,#463,#620,.T.);
#622=ORIENTED_EDGE('',*,*,#621,.F.);
#623=CARTESIAN_POINT('',(-0.180133283987163,-8.326379E-017,0.0));
#624=DIRECTION('',(0.500000000000000,-0.866025403784438,0.0));
#625=VECTOR('',#624,0.180133283987163);
#626=LINE('',#623,#625);
#627=EDGE_CURVE('',#616,#592,#626,.T.);
#628=ORIENTED_EDGE('',*,*,#627,.T.);
#629=ORIENTED_EDGE('',*,*,#597,.T.);
#630=EDGE_LOOP('',(#614,#622,#628,#629));
#631=FACE_OUTER_BOUND('',#630,.T.);
#632=ADVANCED_FACE('',(#631),#613,.T.);
#633=CARTESIAN_POINT('',(-0.180133283987163,-8.326379E-017,0.0));
#634=DIRECTION('',(-0.866025403784439,0.500000000000000,0.0));
#635=DIRECTION('',(0.0,0.0,1.0));
#636=AXIS2_PLACEMENT_3D('',#633,#634,#635);
#637=PLANE('',#636);
#638=ORIENTED_EDGE('',*,*,#468,.T.);
#639=ORIENTED_EDGE('',*,*,#532,.F.);
#640=CARTESIAN_POINT('',(-0.090066641993582,0.156000000000000,0.0));
#641=DIRECTION('',(-0.500000000000000,-0.866025403784439,0.0));
#642=VECTOR('',#641,0.180133283987163);
#643=LINE('',#640,#642);
#644=EDGE_CURVE('',#521,#616,#643,.T.);
#645=ORIENTED_EDGE('',*,*,#644,.T.);
#646=ORIENTED_EDGE('',*,*,#621,.T.);
#647=EDGE_LOOP('',(#638,#639,#645,#646));
#648=FACE_OUTER_BOUND('',#647,.T.);
#649=ADVANCED_FACE('',(#648),#637,.T.);
#650=CARTESIAN_POINT('',(0.0,0.0,0.0));
#651=DIRECTION('',(0.0,0.0,-1.0));
#652=DIRECTION('',(-1.0,0.0,0.0));
#653=AXIS2_PLACEMENT_3D('',#650,#651,#652);
#654=PLANE('',#653);
#655=ORIENTED_EDGE('',*,*,#644,.F.);
#656=ORIENTED_EDGE('',*,*,#526,.F.);
#657=ORIENTED_EDGE('',*,*,#555,.F.);
#658=ORIENTED_EDGE('',*,*,#579,.F.);
#659=ORIENTED_EDGE('',*,*,#603,.F.);
#660=ORIENTED_EDGE('',*,*,#627,.F.);
#661=EDGE_LOOP('',(#655,#656,#657,#658,#659,#660));
#662=FACE_OUTER_BOUND('',#661,.T.);
#663=ORIENTED_EDGE('',*,*,#239,.T.);
#664=EDGE_LOOP('',(#663));
#665=FACE_BOUND('',#664,.T.);
#666=ADVANCED_FACE('',(#662,#665),#654,.T.);
#667=CLOSED_SHELL('',(#146,#166,#186,#206,#226,#246,#274,#286,#306,#326,#354,#366,#386,#406,#434,#446,#505,#536,#560,#584,#608,#632,#649,#666));
#668=MANIFOLD_SOLID_BREP('Solid1',#667);
#669=DRAUGHTING_PRE_DEFINED_COLOUR('white');
#670=FILL_AREA_STYLE_COLOUR('Chrome',#669);
#671=FILL_AREA_STYLE('Chrome',(#670));
#672=SURFACE_STYLE_FILL_AREA(#671);
#673=SURFACE_SIDE_STYLE('Chrome',(#672));
#674=SURFACE_STYLE_USAGE(.BOTH.,#673);
#675=PRESENTATION_STYLE_ASSIGNMENT((#674));
#676=STYLED_ITEM('',(#675),#668);
#677=MECHANICAL_DESIGN_GEOMETRIC_PRESENTATION_REPRESENTATION('',(#676),#42);
#678=ADVANCED_BREP_SHAPE_REPRESENTATION('ABSR',(#668),#87);
#679=SHAPE_REPRESENTATION_RELATIONSHIP('SRR','None',#678,#92);
#680=AXIS2_PLACEMENT_3D('',#681,#682,#683);
#681=CARTESIAN_POINT('',(0.0,0.0,0.0));
#682=DIRECTION('',(0.0,0.0,1.0));
#683=DIRECTION('',(1.0,0.0,0.0));
#684=NEXT_ASSEMBLY_USAGE_OCCURRENCE('BSO-032-10 PEM BLIND STANDOFF:1','BSO-032-10 PEM BLIND STANDOFF:1','BSO-032-10 PEM BLIND STANDOFF:1',#12,#57,'BSO-032-10 PEM BLIND STANDOFF:1');
#685=PRODUCT_DEFINITION_SHAPE('BSO-032-10 PEM BLIND STANDOFF:1','BSO-032-10 PEM BLIND STANDOFF:1',#684);
#686=ITEM_DEFINED_TRANSFORMATION('BSO-032-10 PEM BLIND STANDOFF:1','BSO-032-10 PEM BLIND STANDOFF:1',#88,#680);
#690=(REPRESENTATION_RELATIONSHIP('BSO-032-10 PEM BLIND STANDOFF:1','BSO-032-10 PEM BLIND STANDOFF:1',#92,#47)REPRESENTATION_RELATIONSHIP_WITH_TRANSFORMATION(#686)SHAPE_REPRESENTATION_RELATIONSHIP());
#691=CONTEXT_DEPENDENT_SHAPE_REPRESENTATION(#690,#685);
ENDSEC;
END-ISO-10303-21;
