ISO-10303-21;
HEADER;
/****************************************************************
 * Generated by software with PDE/Lib inside                    *
 * PDElib Version v51a, created Thu 01/14/2010                  *
 * ITI Transcendata (http://www.transcendata.com/)              *
 ****************************************************************/
FILE_DESCRIPTION((''),'2;1');
FILE_NAME('S:\\Engineering\\Public\\Projects\\FlatPack 2\\FP2 19in 600 15 INCH DEEP\\Workspace\\111junk\\STANDOFFS\\THROUGH\\UNIFIED\\SO-832-20-ZI.stp','2012-07-02T09:18:32',('stlaus'),(''),'Autodesk Inventor 2011','Autodesk Inventor 2011','');
FILE_SCHEMA(('AUTOMOTIVE_DESIGN { 1 0 10303 214 1 1 1 1 }'));
ENDSEC;
DATA;
#5=APPLICATION_CONTEXT('automotive design');
#6=APPLICATION_PROTOCOL_DEFINITION('International Standard','automotive_design',2001,#5);
#7=PRODUCT_CONTEXT('',#5,'mechanical');
#8=PRODUCT('Assembly1','Assembly1',$,(#7));
#9=PRODUCT_RELATED_PRODUCT_CATEGORY('part',$,(#8));
#10=PRODUCT_DEFINITION_FORMATION('',$,#8);
#11=PRODUCT_DEFINITION_CONTEXT('part definition',#5,'design');
#12=PRODUCT_DEFINITION('',$,#10,#11);
#18=(NAMED_UNIT(*)PLANE_ANGLE_UNIT()SI_UNIT($,.RADIAN.));
#19=DIMENSIONAL_EXPONENTS(0.0,0.0,0.0,0.0,0.0,0.0,0.0);
#20=PLANE_ANGLE_MEASURE_WITH_UNIT(PLANE_ANGLE_MEASURE(0.017453292500000),#18);
#24=(CONVERSION_BASED_UNIT('DEGREE',#20)NAMED_UNIT(#19)PLANE_ANGLE_UNIT());
#28=(NAMED_UNIT(*)SI_UNIT($,.STERADIAN.)SOLID_ANGLE_UNIT());
#32=(LENGTH_UNIT()NAMED_UNIT(*)SI_UNIT(.CENTI.,.METRE.));
#33=DIMENSIONAL_EXPONENTS(1.0,0.0,0.0,0.0,0.0,0.0,0.0);
#34=LENGTH_MEASURE_WITH_UNIT(LENGTH_MEASURE(2.540000000000000),#32);
#38=(CONVERSION_BASED_UNIT('INCH',#34)LENGTH_UNIT()NAMED_UNIT(#33));
#40=UNCERTAINTY_MEASURE_WITH_UNIT(LENGTH_MEASURE(0.000393700787402),#38,'DISTANCE_ACCURACY_VALUE','');
#42=(GEOMETRIC_REPRESENTATION_CONTEXT(3)GLOBAL_UNCERTAINTY_ASSIGNED_CONTEXT((#40))GLOBAL_UNIT_ASSIGNED_CONTEXT((#24,#28,#38))REPRESENTATION_CONTEXT('None','None'));
#43=AXIS2_PLACEMENT_3D('',#44,#45,#46);
#44=CARTESIAN_POINT('',(0.0,0.0,0.0));
#45=DIRECTION('',(0.0,0.0,1.0));
#46=DIRECTION('',(1.0,0.0,0.0));
#47=SHAPE_REPRESENTATION('',(#43,#700),#42);
#48=PRODUCT_DEFINITION_SHAPE('','',#12);
#49=SHAPE_DEFINITION_REPRESENTATION(#48,#47);
#50=APPLICATION_CONTEXT('automotive design');
#51=APPLICATION_PROTOCOL_DEFINITION('International Standard','automotive_design',2001,#50);
#52=PRODUCT_CONTEXT('',#50,'mechanical');
#53=PRODUCT('SO-832-20 PEM THRU HOLE THD  STANDOFF','SO-832-20 PEM THRU HOLE THD  STANDOFF',$,(#52));
#54=PRODUCT_RELATED_PRODUCT_CATEGORY('part',$,(#53));
#55=PRODUCT_DEFINITION_FORMATION('',$,#53);
#56=PRODUCT_DEFINITION_CONTEXT('part definition',#50,'design');
#57=PRODUCT_DEFINITION('',$,#55,#56);
#63=(NAMED_UNIT(*)PLANE_ANGLE_UNIT()SI_UNIT($,.RADIAN.));
#64=DIMENSIONAL_EXPONENTS(0.0,0.0,0.0,0.0,0.0,0.0,0.0);
#65=PLANE_ANGLE_MEASURE_WITH_UNIT(PLANE_ANGLE_MEASURE(0.017453292500000),#63);
#69=(CONVERSION_BASED_UNIT('DEGREE',#65)NAMED_UNIT(#64)PLANE_ANGLE_UNIT());
#73=(NAMED_UNIT(*)SI_UNIT($,.STERADIAN.)SOLID_ANGLE_UNIT());
#77=(LENGTH_UNIT()NAMED_UNIT(*)SI_UNIT(.CENTI.,.METRE.));
#78=DIMENSIONAL_EXPONENTS(1.0,0.0,0.0,0.0,0.0,0.0,0.0);
#79=LENGTH_MEASURE_WITH_UNIT(LENGTH_MEASURE(2.540000000000000),#77);
#83=(CONVERSION_BASED_UNIT('INCH',#79)LENGTH_UNIT()NAMED_UNIT(#78));
#85=UNCERTAINTY_MEASURE_WITH_UNIT(LENGTH_MEASURE(0.000393700787402),#83,'DISTANCE_ACCURACY_VALUE','');
#87=(GEOMETRIC_REPRESENTATION_CONTEXT(3)GLOBAL_UNCERTAINTY_ASSIGNED_CONTEXT((#85))GLOBAL_UNIT_ASSIGNED_CONTEXT((#69,#73,#83))REPRESENTATION_CONTEXT('None','None'));
#88=AXIS2_PLACEMENT_3D('',#89,#90,#91);
#89=CARTESIAN_POINT('',(0.0,0.0,0.0));
#90=DIRECTION('',(0.0,0.0,1.0));
#91=DIRECTION('',(1.0,0.0,0.0));
#92=SHAPE_REPRESENTATION('',(#88),#87);
#93=PRODUCT_DEFINITION_SHAPE('','',#57);
#94=SHAPE_DEFINITION_REPRESENTATION(#93,#92);
#100=(NAMED_UNIT(*)PLANE_ANGLE_UNIT()SI_UNIT($,.RADIAN.));
#101=DIMENSIONAL_EXPONENTS(0.0,0.0,0.0,0.0,0.0,0.0,0.0);
#102=PLANE_ANGLE_MEASURE_WITH_UNIT(PLANE_ANGLE_MEASURE(0.017453292500000),#100);
#106=(CONVERSION_BASED_UNIT('DEGREE',#102)NAMED_UNIT(#101)PLANE_ANGLE_UNIT());
#110=(NAMED_UNIT(*)SI_UNIT($,.STERADIAN.)SOLID_ANGLE_UNIT());
#114=(LENGTH_UNIT()NAMED_UNIT(*)SI_UNIT(.MILLI.,.METRE.));
#116=UNCERTAINTY_MEASURE_WITH_UNIT(LENGTH_MEASURE(0.000001000000000),#114,'DISTANCE_ACCURACY_VALUE','');
#118=(GEOMETRIC_REPRESENTATION_CONTEXT(3)GLOBAL_UNCERTAINTY_ASSIGNED_CONTEXT((#116))GLOBAL_UNIT_ASSIGNED_CONTEXT((#106,#110,#114))REPRESENTATION_CONTEXT('','3D'));
#119=CARTESIAN_POINT('',(0.0,0.0,0.623500000000000));
#120=DIRECTION('',(0.0,0.0,-1.0));
#121=DIRECTION('',(-1.0,0.0,0.0));
#122=AXIS2_PLACEMENT_3D('',#119,#120,#121);
#123=CONICAL_SURFACE('',#122,0.138500000000000,45.000000000000206);
#124=CARTESIAN_POINT('',(0.137000000000000,-1.677711E-017,0.625000000000000));
#125=VERTEX_POINT('',#124);
#126=CARTESIAN_POINT('',(0.0,0.0,0.625000000000000));
#127=DIRECTION('',(0.0,0.0,-1.0));
#128=DIRECTION('',(-1.0,0.0,0.0));
#129=AXIS2_PLACEMENT_3D('',#126,#127,#128);
#130=CIRCLE('',#129,0.137000000000000);
#131=EDGE_CURVE('',#125,#125,#130,.T.);
#132=ORIENTED_EDGE('',*,*,#131,.T.);
#133=EDGE_LOOP('',(#132));
#134=FACE_OUTER_BOUND('',#133,.T.);
#135=CARTESIAN_POINT('',(0.140000000000000,1.714449E-017,0.622000000000000));
#136=VERTEX_POINT('',#135);
#137=CARTESIAN_POINT('',(0.0,0.0,0.622000000000000));
#138=DIRECTION('',(0.0,0.0,1.0));
#139=DIRECTION('',(-1.0,0.0,0.0));
#140=AXIS2_PLACEMENT_3D('',#137,#138,#139);
#141=CIRCLE('',#140,0.140000000000000);
#142=EDGE_CURVE('',#136,#136,#141,.T.);
#143=ORIENTED_EDGE('',*,*,#142,.T.);
#144=EDGE_LOOP('',(#143));
#145=FACE_BOUND('',#144,.T.);
#146=ADVANCED_FACE('',(#134,#145),#123,.T.);
#147=CARTESIAN_POINT('',(0.0,0.0,0.625000000000000));
#148=DIRECTION('',(0.0,0.0,-1.0));
#149=DIRECTION('',(-1.0,0.0,0.0));
#150=AXIS2_PLACEMENT_3D('',#147,#148,#149);
#151=PLANE('',#150);
#152=ORIENTED_EDGE('',*,*,#131,.F.);
#153=EDGE_LOOP('',(#152));
#154=FACE_OUTER_BOUND('',#153,.T.);
#155=CARTESIAN_POINT('',(0.090000000000000,1.102146E-017,0.625000000000000));
#156=VERTEX_POINT('',#155);
#157=CARTESIAN_POINT('',(0.0,0.0,0.625000000000000));
#158=DIRECTION('',(0.0,0.0,1.0));
#159=DIRECTION('',(-1.0,0.0,0.0));
#160=AXIS2_PLACEMENT_3D('',#157,#158,#159);
#161=CIRCLE('',#160,0.090000000000000);
#162=EDGE_CURVE('',#156,#156,#161,.T.);
#163=ORIENTED_EDGE('',*,*,#162,.F.);
#164=EDGE_LOOP('',(#163));
#165=FACE_BOUND('',#164,.T.);
#166=ADVANCED_FACE('',(#154,#165),#151,.F.);
#167=CARTESIAN_POINT('',(0.0,0.0,0.0));
#168=DIRECTION('',(0.0,0.0,1.0));
#169=DIRECTION('',(-1.0,0.0,0.0));
#170=AXIS2_PLACEMENT_3D('',#167,#168,#169);
#171=CYLINDRICAL_SURFACE('',#170,0.140000000000000);
#172=CARTESIAN_POINT('',(0.0,-0.140000000000000,0.102500000000000));
#173=VERTEX_POINT('',#172);
#174=CARTESIAN_POINT('',(0.0,0.0,0.102500000000000));
#175=DIRECTION('',(0.0,0.0,1.0));
#176=DIRECTION('',(-1.0,0.0,0.0));
#177=AXIS2_PLACEMENT_3D('',#174,#175,#176);
#178=CIRCLE('',#177,0.140000000000000);
#179=EDGE_CURVE('',#173,#173,#178,.T.);
#180=ORIENTED_EDGE('',*,*,#179,.T.);
#181=EDGE_LOOP('',(#180));
#182=FACE_OUTER_BOUND('',#181,.T.);
#183=ORIENTED_EDGE('',*,*,#142,.F.);
#184=EDGE_LOOP('',(#183));
#185=FACE_BOUND('',#184,.T.);
#186=ADVANCED_FACE('',(#182,#185),#171,.T.);
#187=CARTESIAN_POINT('',(0.0,0.0,0.469000000000000));
#188=DIRECTION('',(0.0,0.0,1.0));
#189=DIRECTION('',(1.0,0.0,0.0));
#190=AXIS2_PLACEMENT_3D('',#187,#188,#189);
#191=CYLINDRICAL_SURFACE('',#190,0.082500000000000);
#192=CARTESIAN_POINT('',(-0.082500000000000,1.010300E-017,0.617500000000000));
#193=VERTEX_POINT('',#192);
#194=CARTESIAN_POINT('',(0.0,0.0,0.617500000000000));
#195=DIRECTION('',(0.0,0.0,-1.0));
#196=DIRECTION('',(1.0,0.0,0.0));
#197=AXIS2_PLACEMENT_3D('',#194,#195,#196);
#198=CIRCLE('',#197,0.082500000000000);
#199=EDGE_CURVE('',#193,#193,#198,.T.);
#200=ORIENTED_EDGE('',*,*,#199,.F.);
#201=EDGE_LOOP('',(#200));
#202=FACE_OUTER_BOUND('',#201,.T.);
#203=CARTESIAN_POINT('',(0.082500000000000,0.0,0.313000000000000));
#204=VERTEX_POINT('',#203);
#205=CARTESIAN_POINT('',(0.0,0.0,0.313000000000000));
#206=DIRECTION('',(0.0,0.0,1.0));
#207=DIRECTION('',(1.0,0.0,0.0));
#208=AXIS2_PLACEMENT_3D('',#205,#206,#207);
#209=CIRCLE('',#208,0.082500000000000);
#210=EDGE_CURVE('',#204,#204,#209,.T.);
#211=ORIENTED_EDGE('',*,*,#210,.F.);
#212=EDGE_LOOP('',(#211));
#213=FACE_BOUND('',#212,.T.);
#214=ADVANCED_FACE('',(#202,#213),#191,.F.);
#215=CARTESIAN_POINT('',(0.0,0.0,0.313000000000000));
#216=DIRECTION('',(0.0,0.0,1.0));
#217=DIRECTION('',(1.0,0.0,0.0));
#218=AXIS2_PLACEMENT_3D('',#215,#216,#217);
#219=PLANE('',#218);
#220=ORIENTED_EDGE('',*,*,#210,.T.);
#221=EDGE_LOOP('',(#220));
#222=FACE_OUTER_BOUND('',#221,.T.);
#223=CARTESIAN_POINT('',(-0.082000000000000,-1.004177E-017,0.313000000000000));
#224=VERTEX_POINT('',#223);
#225=CARTESIAN_POINT('',(0.0,0.0,0.313000000000000));
#226=DIRECTION('',(0.0,0.0,1.0));
#227=DIRECTION('',(1.0,0.0,0.0));
#228=AXIS2_PLACEMENT_3D('',#225,#226,#227);
#229=CIRCLE('',#228,0.082000000000000);
#230=EDGE_CURVE('',#224,#224,#229,.T.);
#231=ORIENTED_EDGE('',*,*,#230,.F.);
#232=EDGE_LOOP('',(#231));
#233=FACE_BOUND('',#232,.T.);
#234=ADVANCED_FACE('',(#222,#233),#219,.T.);
#235=CARTESIAN_POINT('',(0.0,0.0,0.621000000000000));
#236=DIRECTION('',(0.0,0.0,1.0));
#237=DIRECTION('',(-1.0,0.0,0.0));
#238=AXIS2_PLACEMENT_3D('',#235,#236,#237);
#239=CONICAL_SURFACE('',#238,0.086000000000000,45.000000000000156);
#240=ORIENTED_EDGE('',*,*,#199,.T.);
#241=EDGE_LOOP('',(#240));
#242=FACE_OUTER_BOUND('',#241,.T.);
#243=ORIENTED_EDGE('',*,*,#162,.T.);
#244=EDGE_LOOP('',(#243));
#245=FACE_BOUND('',#244,.T.);
#246=ADVANCED_FACE('',(#242,#245),#239,.F.);
#247=CARTESIAN_POINT('',(0.0,0.0,-0.160977735053608));
#248=DIRECTION('',(0.0,0.0,1.0));
#249=DIRECTION('',(1.0,0.0,0.0));
#250=AXIS2_PLACEMENT_3D('',#247,#248,#249);
#251=CYLINDRICAL_SURFACE('',#250,0.082000000000000);
#252=ORIENTED_EDGE('',*,*,#230,.T.);
#253=EDGE_LOOP('',(#252));
#254=FACE_OUTER_BOUND('',#253,.T.);
#255=CARTESIAN_POINT('',(-0.082000000000000,-1.004177E-017,0.0));
#256=VERTEX_POINT('',#255);
#257=CARTESIAN_POINT('',(0.0,0.0,0.0));
#258=DIRECTION('',(0.0,0.0,1.0));
#259=DIRECTION('',(1.0,0.0,0.0));
#260=AXIS2_PLACEMENT_3D('',#257,#258,#259);
#261=CIRCLE('',#260,0.082000000000000);
#262=EDGE_CURVE('',#256,#256,#261,.T.);
#263=ORIENTED_EDGE('',*,*,#262,.F.);
#264=EDGE_LOOP('',(#263));
#265=FACE_BOUND('',#264,.T.);
#266=ADVANCED_FACE('',(#254,#265),#251,.F.);
#267=CARTESIAN_POINT('',(0.0,0.0,0.097500000000000));
#268=DIRECTION('',(0.0,0.0,-1.0));
#269=DIRECTION('',(0.0,-1.0,0.0));
#270=AXIS2_PLACEMENT_3D('',#267,#268,#269);
#271=CYLINDRICAL_SURFACE('',#270,0.130000000000000);
#272=CARTESIAN_POINT('',(0.0,-0.130000000000000,0.102500000000000));
#273=VERTEX_POINT('',#272);
#274=CARTESIAN_POINT('',(0.0,0.0,0.102500000000000));
#275=DIRECTION('',(0.0,0.0,-1.0));
#276=DIRECTION('',(0.0,-1.0,0.0));
#277=AXIS2_PLACEMENT_3D('',#274,#275,#276);
#278=CIRCLE('',#277,0.130000000000000);
#279=EDGE_CURVE('',#273,#273,#278,.T.);
#280=ORIENTED_EDGE('',*,*,#279,.T.);
#281=EDGE_LOOP('',(#280));
#282=FACE_OUTER_BOUND('',#281,.T.);
#283=CARTESIAN_POINT('',(0.0,-0.130000000000000,0.092500000000000));
#284=VERTEX_POINT('',#283);
#285=CARTESIAN_POINT('',(0.0,0.0,0.092500000000000));
#286=DIRECTION('',(0.0,0.0,-1.0));
#287=DIRECTION('',(0.0,-1.0,0.0));
#288=AXIS2_PLACEMENT_3D('',#285,#286,#287);
#289=CIRCLE('',#288,0.130000000000000);
#290=EDGE_CURVE('',#284,#284,#289,.T.);
#291=ORIENTED_EDGE('',*,*,#290,.F.);
#292=EDGE_LOOP('',(#291));
#293=FACE_BOUND('',#292,.T.);
#294=ADVANCED_FACE('',(#282,#293),#271,.T.);
#295=CARTESIAN_POINT('',(0.0,-0.135000000000000,0.102500000000000));
#296=DIRECTION('',(0.0,0.0,1.0));
#297=DIRECTION('',(1.0,0.0,0.0));
#298=AXIS2_PLACEMENT_3D('',#295,#296,#297);
#299=PLANE('',#298);
#300=ORIENTED_EDGE('',*,*,#179,.F.);
#301=EDGE_LOOP('',(#300));
#302=FACE_OUTER_BOUND('',#301,.T.);
#303=ORIENTED_EDGE('',*,*,#279,.F.);
#304=EDGE_LOOP('',(#303));
#305=FACE_BOUND('',#304,.T.);
#306=ADVANCED_FACE('',(#302,#305),#299,.F.);
#307=CARTESIAN_POINT('',(0.0,-0.135000000000000,0.092500000000000));
#308=DIRECTION('',(0.0,0.0,-1.0));
#309=DIRECTION('',(-1.0,0.0,0.0));
#310=AXIS2_PLACEMENT_3D('',#307,#308,#309);
#311=PLANE('',#310);
#312=CARTESIAN_POINT('',(0.0,-0.140000000000000,0.092500000000000));
#313=VERTEX_POINT('',#312);
#314=CARTESIAN_POINT('',(0.0,0.0,0.092500000000000));
#315=DIRECTION('',(0.0,0.0,-1.0));
#316=DIRECTION('',(-1.0,0.0,0.0));
#317=AXIS2_PLACEMENT_3D('',#314,#315,#316);
#318=CIRCLE('',#317,0.140000000000000);
#319=EDGE_CURVE('',#313,#313,#318,.T.);
#320=ORIENTED_EDGE('',*,*,#319,.F.);
#321=EDGE_LOOP('',(#320));
#322=FACE_OUTER_BOUND('',#321,.T.);
#323=ORIENTED_EDGE('',*,*,#290,.T.);
#324=EDGE_LOOP('',(#323));
#325=FACE_BOUND('',#324,.T.);
#326=ADVANCED_FACE('',(#322,#325),#311,.F.);
#327=CARTESIAN_POINT('',(0.0,0.0,0.0));
#328=DIRECTION('',(0.0,0.0,1.0));
#329=DIRECTION('',(-1.0,0.0,0.0));
#330=AXIS2_PLACEMENT_3D('',#327,#328,#329);
#331=CYLINDRICAL_SURFACE('',#330,0.140000000000000);
#332=CARTESIAN_POINT('',(0.0,-0.140000000000000,0.080000000000000));
#333=VERTEX_POINT('',#332);
#334=CARTESIAN_POINT('',(0.0,0.0,0.080000000000000));
#335=DIRECTION('',(0.0,0.0,1.0));
#336=DIRECTION('',(-1.0,0.0,0.0));
#337=AXIS2_PLACEMENT_3D('',#334,#335,#336);
#338=CIRCLE('',#337,0.140000000000000);
#339=EDGE_CURVE('',#333,#333,#338,.T.);
#340=ORIENTED_EDGE('',*,*,#339,.T.);
#341=EDGE_LOOP('',(#340));
#342=FACE_OUTER_BOUND('',#341,.T.);
#343=ORIENTED_EDGE('',*,*,#319,.T.);
#344=EDGE_LOOP('',(#343));
#345=FACE_BOUND('',#344,.T.);
#346=ADVANCED_FACE('',(#342,#345),#331,.T.);
#347=CARTESIAN_POINT('',(0.0,0.0,0.075000000000000));
#348=DIRECTION('',(0.0,0.0,-1.0));
#349=DIRECTION('',(0.0,-1.0,0.0));
#350=AXIS2_PLACEMENT_3D('',#347,#348,#349);
#351=CYLINDRICAL_SURFACE('',#350,0.130000000000000);
#352=CARTESIAN_POINT('',(0.0,-0.130000000000000,0.080000000000000));
#353=VERTEX_POINT('',#352);
#354=CARTESIAN_POINT('',(0.0,0.0,0.080000000000000));
#355=DIRECTION('',(0.0,0.0,-1.0));
#356=DIRECTION('',(0.0,-1.0,0.0));
#357=AXIS2_PLACEMENT_3D('',#354,#355,#356);
#358=CIRCLE('',#357,0.130000000000000);
#359=EDGE_CURVE('',#353,#353,#358,.T.);
#360=ORIENTED_EDGE('',*,*,#359,.T.);
#361=EDGE_LOOP('',(#360));
#362=FACE_OUTER_BOUND('',#361,.T.);
#363=CARTESIAN_POINT('',(0.0,-0.130000000000000,0.070000000000000));
#364=VERTEX_POINT('',#363);
#365=CARTESIAN_POINT('',(0.0,0.0,0.070000000000000));
#366=DIRECTION('',(0.0,0.0,-1.0));
#367=DIRECTION('',(0.0,-1.0,0.0));
#368=AXIS2_PLACEMENT_3D('',#365,#366,#367);
#369=CIRCLE('',#368,0.130000000000000);
#370=EDGE_CURVE('',#364,#364,#369,.T.);
#371=ORIENTED_EDGE('',*,*,#370,.F.);
#372=EDGE_LOOP('',(#371));
#373=FACE_BOUND('',#372,.T.);
#374=ADVANCED_FACE('',(#362,#373),#351,.T.);
#375=CARTESIAN_POINT('',(0.0,-0.135000000000000,0.080000000000000));
#376=DIRECTION('',(0.0,0.0,1.0));
#377=DIRECTION('',(1.0,0.0,0.0));
#378=AXIS2_PLACEMENT_3D('',#375,#376,#377);
#379=PLANE('',#378);
#380=ORIENTED_EDGE('',*,*,#339,.F.);
#381=EDGE_LOOP('',(#380));
#382=FACE_OUTER_BOUND('',#381,.T.);
#383=ORIENTED_EDGE('',*,*,#359,.F.);
#384=EDGE_LOOP('',(#383));
#385=FACE_BOUND('',#384,.T.);
#386=ADVANCED_FACE('',(#382,#385),#379,.F.);
#387=CARTESIAN_POINT('',(0.0,-0.135000000000000,0.070000000000000));
#388=DIRECTION('',(0.0,0.0,-1.0));
#389=DIRECTION('',(-1.0,0.0,0.0));
#390=AXIS2_PLACEMENT_3D('',#387,#388,#389);
#391=PLANE('',#390);
#392=CARTESIAN_POINT('',(0.0,-0.140000000000000,0.070000000000000));
#393=VERTEX_POINT('',#392);
#394=CARTESIAN_POINT('',(0.0,0.0,0.070000000000000));
#395=DIRECTION('',(0.0,0.0,-1.0));
#396=DIRECTION('',(-1.0,0.0,0.0));
#397=AXIS2_PLACEMENT_3D('',#394,#395,#396);
#398=CIRCLE('',#397,0.140000000000000);
#399=EDGE_CURVE('',#393,#393,#398,.T.);
#400=ORIENTED_EDGE('',*,*,#399,.F.);
#401=EDGE_LOOP('',(#400));
#402=FACE_OUTER_BOUND('',#401,.T.);
#403=ORIENTED_EDGE('',*,*,#370,.T.);
#404=EDGE_LOOP('',(#403));
#405=FACE_BOUND('',#404,.T.);
#406=ADVANCED_FACE('',(#402,#405),#391,.F.);
#407=CARTESIAN_POINT('',(0.0,0.0,0.0));
#408=DIRECTION('',(0.0,0.0,1.0));
#409=DIRECTION('',(-1.0,0.0,0.0));
#410=AXIS2_PLACEMENT_3D('',#407,#408,#409);
#411=CYLINDRICAL_SURFACE('',#410,0.140000000000000);
#412=CARTESIAN_POINT('',(0.0,-0.140000000000000,0.055000000000000));
#413=VERTEX_POINT('',#412);
#414=CARTESIAN_POINT('',(0.0,0.0,0.055000000000000));
#415=DIRECTION('',(0.0,0.0,1.0));
#416=DIRECTION('',(-1.0,0.0,0.0));
#417=AXIS2_PLACEMENT_3D('',#414,#415,#416);
#418=CIRCLE('',#417,0.140000000000000);
#419=EDGE_CURVE('',#413,#413,#418,.T.);
#420=ORIENTED_EDGE('',*,*,#419,.T.);
#421=EDGE_LOOP('',(#420));
#422=FACE_OUTER_BOUND('',#421,.T.);
#423=ORIENTED_EDGE('',*,*,#399,.T.);
#424=EDGE_LOOP('',(#423));
#425=FACE_BOUND('',#424,.T.);
#426=ADVANCED_FACE('',(#422,#425),#411,.T.);
#427=CARTESIAN_POINT('',(0.0,0.0,0.040000000000000));
#428=DIRECTION('',(0.0,0.0,-1.0));
#429=DIRECTION('',(0.0,-1.0,0.0));
#430=AXIS2_PLACEMENT_3D('',#427,#428,#429);
#431=CYLINDRICAL_SURFACE('',#430,0.120000000000000);
#432=CARTESIAN_POINT('',(0.0,-0.120000000000000,0.055000000000000));
#433=VERTEX_POINT('',#432);
#434=CARTESIAN_POINT('',(0.0,0.0,0.055000000000000));
#435=DIRECTION('',(0.0,0.0,-1.0));
#436=DIRECTION('',(0.0,-1.0,0.0));
#437=AXIS2_PLACEMENT_3D('',#434,#435,#436);
#438=CIRCLE('',#437,0.120000000000000);
#439=EDGE_CURVE('',#433,#433,#438,.T.);
#440=ORIENTED_EDGE('',*,*,#439,.T.);
#441=EDGE_LOOP('',(#440));
#442=FACE_OUTER_BOUND('',#441,.T.);
#443=CARTESIAN_POINT('',(0.0,-0.120000000000000,0.025000000000000));
#444=VERTEX_POINT('',#443);
#445=CARTESIAN_POINT('',(0.0,0.0,0.025000000000000));
#446=DIRECTION('',(0.0,0.0,-1.0));
#447=DIRECTION('',(0.0,-1.0,0.0));
#448=AXIS2_PLACEMENT_3D('',#445,#446,#447);
#449=CIRCLE('',#448,0.120000000000000);
#450=EDGE_CURVE('',#444,#444,#449,.T.);
#451=ORIENTED_EDGE('',*,*,#450,.F.);
#452=EDGE_LOOP('',(#451));
#453=FACE_BOUND('',#452,.T.);
#454=ADVANCED_FACE('',(#442,#453),#431,.T.);
#455=CARTESIAN_POINT('',(0.0,-0.130000000000000,0.055000000000000));
#456=DIRECTION('',(0.0,0.0,1.0));
#457=DIRECTION('',(1.0,0.0,0.0));
#458=AXIS2_PLACEMENT_3D('',#455,#456,#457);
#459=PLANE('',#458);
#460=ORIENTED_EDGE('',*,*,#419,.F.);
#461=EDGE_LOOP('',(#460));
#462=FACE_OUTER_BOUND('',#461,.T.);
#463=ORIENTED_EDGE('',*,*,#439,.F.);
#464=EDGE_LOOP('',(#463));
#465=FACE_BOUND('',#464,.T.);
#466=ADVANCED_FACE('',(#462,#465),#459,.F.);
#467=CARTESIAN_POINT('',(-9.602860E-018,-2.185478E-017,0.025000000000000));
#468=DIRECTION('',(0.0,0.0,1.0));
#469=DIRECTION('',(1.0,0.0,0.0));
#470=AXIS2_PLACEMENT_3D('',#467,#468,#469);
#471=PLANE('',#470);
#472=CARTESIAN_POINT('',(-0.090066641993582,0.156000000000000,0.025000000000000));
#473=VERTEX_POINT('',#472);
#474=CARTESIAN_POINT('',(0.090066641993582,0.156000000000000,0.025000000000000));
#475=VERTEX_POINT('',#474);
#476=CARTESIAN_POINT('',(-0.090066641993582,0.156000000000000,0.025000000000000));
#477=DIRECTION('',(1.0,0.0,0.0));
#478=VECTOR('',#477,0.180133283987163);
#479=LINE('',#476,#478);
#480=EDGE_CURVE('',#473,#475,#479,.T.);
#481=ORIENTED_EDGE('',*,*,#480,.F.);
#482=CARTESIAN_POINT('',(-0.180133283987163,-1.215097E-016,0.025000000000000));
#483=VERTEX_POINT('',#482);
#484=CARTESIAN_POINT('',(-0.180133283987163,-1.110223E-016,0.025000000000000));
#485=DIRECTION('',(0.499999999999999,0.866025403784439,0.0));
#486=VECTOR('',#485,0.180133283987163);
#487=LINE('',#484,#486);
#488=EDGE_CURVE('',#483,#473,#487,.T.);
#489=ORIENTED_EDGE('',*,*,#488,.F.);
#490=CARTESIAN_POINT('',(-0.090066641993582,-0.156000000000000,0.025000000000000));
#491=VERTEX_POINT('',#490);
#492=CARTESIAN_POINT('',(-0.090066641993582,-0.156000000000000,0.025000000000000));
#493=DIRECTION('',(-0.500000000000000,0.866025403784438,0.0));
#494=VECTOR('',#493,0.180133283987163);
#495=LINE('',#492,#494);
#496=EDGE_CURVE('',#491,#483,#495,.T.);
#497=ORIENTED_EDGE('',*,*,#496,.F.);
#498=CARTESIAN_POINT('',(0.090066641993582,-0.156000000000000,0.025000000000000));
#499=VERTEX_POINT('',#498);
#500=CARTESIAN_POINT('',(0.090066641993582,-0.156000000000000,0.025000000000000));
#501=DIRECTION('',(-1.0,0.0,0.0));
#502=VECTOR('',#501,0.180133283987163);
#503=LINE('',#500,#502);
#504=EDGE_CURVE('',#499,#491,#503,.T.);
#505=ORIENTED_EDGE('',*,*,#504,.F.);
#506=CARTESIAN_POINT('',(0.180133283987163,1.496759E-017,0.025000000000000));
#507=VERTEX_POINT('',#506);
#508=CARTESIAN_POINT('',(0.180133283987163,5.551115E-017,0.025000000000000));
#509=DIRECTION('',(-0.500000000000000,-0.866025403784439,0.0));
#510=VECTOR('',#509,0.180133283987163);
#511=LINE('',#508,#510);
#512=EDGE_CURVE('',#507,#499,#511,.T.);
#513=ORIENTED_EDGE('',*,*,#512,.F.);
#514=CARTESIAN_POINT('',(0.090066641993582,0.156000000000000,0.025000000000000));
#515=DIRECTION('',(0.500000000000000,-0.866025403784439,0.0));
#516=VECTOR('',#515,0.180133283987163);
#517=LINE('',#514,#516);
#518=EDGE_CURVE('',#475,#507,#517,.T.);
#519=ORIENTED_EDGE('',*,*,#518,.F.);
#520=EDGE_LOOP('',(#481,#489,#497,#505,#513,#519));
#521=FACE_OUTER_BOUND('',#520,.T.);
#522=ORIENTED_EDGE('',*,*,#450,.T.);
#523=EDGE_LOOP('',(#522));
#524=FACE_BOUND('',#523,.T.);
#525=ADVANCED_FACE('',(#521,#524),#471,.T.);
#526=CARTESIAN_POINT('',(-0.090066641993582,0.156000000000000,0.0));
#527=DIRECTION('',(0.0,1.0,0.0));
#528=DIRECTION('',(0.0,0.0,1.0));
#529=AXIS2_PLACEMENT_3D('',#526,#527,#528);
#530=PLANE('',#529);
#531=ORIENTED_EDGE('',*,*,#480,.T.);
#532=CARTESIAN_POINT('',(0.090066641993582,0.156000000000000,0.0));
#533=VERTEX_POINT('',#532);
#534=CARTESIAN_POINT('',(0.090066641993582,0.156000000000000,0.0));
#535=DIRECTION('',(0.0,0.0,1.0));
#536=VECTOR('',#535,0.025000000000000);
#537=LINE('',#534,#536);
#538=EDGE_CURVE('',#533,#475,#537,.T.);
#539=ORIENTED_EDGE('',*,*,#538,.F.);
#540=CARTESIAN_POINT('',(-0.090066641993582,0.156000000000000,0.0));
#541=VERTEX_POINT('',#540);
#542=CARTESIAN_POINT('',(0.090066641993582,0.156000000000000,0.0));
#543=DIRECTION('',(-1.0,0.0,0.0));
#544=VECTOR('',#543,0.180133283987163);
#545=LINE('',#542,#544);
#546=EDGE_CURVE('',#533,#541,#545,.T.);
#547=ORIENTED_EDGE('',*,*,#546,.T.);
#548=CARTESIAN_POINT('',(-0.090066641993582,0.156000000000000,0.0));
#549=DIRECTION('',(0.0,0.0,1.0));
#550=VECTOR('',#549,0.025000000000000);
#551=LINE('',#548,#550);
#552=EDGE_CURVE('',#541,#473,#551,.T.);
#553=ORIENTED_EDGE('',*,*,#552,.T.);
#554=EDGE_LOOP('',(#531,#539,#547,#553));
#555=FACE_OUTER_BOUND('',#554,.T.);
#556=ADVANCED_FACE('',(#555),#530,.T.);
#557=CARTESIAN_POINT('',(0.090066641993582,0.156000000000000,0.0));
#558=DIRECTION('',(0.866025403784439,0.500000000000000,0.0));
#559=DIRECTION('',(0.0,0.0,-1.0));
#560=AXIS2_PLACEMENT_3D('',#557,#558,#559);
#561=PLANE('',#560);
#562=ORIENTED_EDGE('',*,*,#518,.T.);
#563=CARTESIAN_POINT('',(0.180133283987163,1.496759E-017,0.0));
#564=VERTEX_POINT('',#563);
#565=CARTESIAN_POINT('',(0.180133283987163,1.496759E-017,0.0));
#566=DIRECTION('',(0.0,0.0,1.0));
#567=VECTOR('',#566,0.025000000000000);
#568=LINE('',#565,#567);
#569=EDGE_CURVE('',#564,#507,#568,.T.);
#570=ORIENTED_EDGE('',*,*,#569,.F.);
#571=CARTESIAN_POINT('',(0.180133283987163,1.496759E-017,0.0));
#572=DIRECTION('',(-0.500000000000000,0.866025403784439,0.0));
#573=VECTOR('',#572,0.180133283987163);
#574=LINE('',#571,#573);
#575=EDGE_CURVE('',#564,#533,#574,.T.);
#576=ORIENTED_EDGE('',*,*,#575,.T.);
#577=ORIENTED_EDGE('',*,*,#538,.T.);
#578=EDGE_LOOP('',(#562,#570,#576,#577));
#579=FACE_OUTER_BOUND('',#578,.T.);
#580=ADVANCED_FACE('',(#579),#561,.T.);
#581=CARTESIAN_POINT('',(0.180133283987163,1.496759E-017,0.0));
#582=DIRECTION('',(0.866025403784439,-0.500000000000000,0.0));
#583=DIRECTION('',(0.0,0.0,-1.0));
#584=AXIS2_PLACEMENT_3D('',#581,#582,#583);
#585=PLANE('',#584);
#586=ORIENTED_EDGE('',*,*,#512,.T.);
#587=CARTESIAN_POINT('',(0.090066641993582,-0.156000000000000,0.0));
#588=VERTEX_POINT('',#587);
#589=CARTESIAN_POINT('',(0.090066641993582,-0.156000000000000,0.0));
#590=DIRECTION('',(0.0,0.0,1.0));
#591=VECTOR('',#590,0.025000000000000);
#592=LINE('',#589,#591);
#593=EDGE_CURVE('',#588,#499,#592,.T.);
#594=ORIENTED_EDGE('',*,*,#593,.F.);
#595=CARTESIAN_POINT('',(0.090066641993582,-0.156000000000000,0.0));
#596=DIRECTION('',(0.500000000000000,0.866025403784439,0.0));
#597=VECTOR('',#596,0.180133283987163);
#598=LINE('',#595,#597);
#599=EDGE_CURVE('',#588,#564,#598,.T.);
#600=ORIENTED_EDGE('',*,*,#599,.T.);
#601=ORIENTED_EDGE('',*,*,#569,.T.);
#602=EDGE_LOOP('',(#586,#594,#600,#601));
#603=FACE_OUTER_BOUND('',#602,.T.);
#604=ADVANCED_FACE('',(#603),#585,.T.);
#605=CARTESIAN_POINT('',(0.090066641993582,-0.156000000000000,0.0));
#606=DIRECTION('',(0.0,-1.0,0.0));
#607=DIRECTION('',(0.0,0.0,-1.0));
#608=AXIS2_PLACEMENT_3D('',#605,#606,#607);
#609=PLANE('',#608);
#610=ORIENTED_EDGE('',*,*,#504,.T.);
#611=CARTESIAN_POINT('',(-0.090066641993582,-0.156000000000000,0.0));
#612=VERTEX_POINT('',#611);
#613=CARTESIAN_POINT('',(-0.090066641993582,-0.156000000000000,0.0));
#614=DIRECTION('',(0.0,0.0,1.0));
#615=VECTOR('',#614,0.025000000000000);
#616=LINE('',#613,#615);
#617=EDGE_CURVE('',#612,#491,#616,.T.);
#618=ORIENTED_EDGE('',*,*,#617,.F.);
#619=CARTESIAN_POINT('',(-0.090066641993582,-0.156000000000000,0.0));
#620=DIRECTION('',(1.0,0.0,0.0));
#621=VECTOR('',#620,0.180133283987163);
#622=LINE('',#619,#621);
#623=EDGE_CURVE('',#612,#588,#622,.T.);
#624=ORIENTED_EDGE('',*,*,#623,.T.);
#625=ORIENTED_EDGE('',*,*,#593,.T.);
#626=EDGE_LOOP('',(#610,#618,#624,#625));
#627=FACE_OUTER_BOUND('',#626,.T.);
#628=ADVANCED_FACE('',(#627),#609,.T.);
#629=CARTESIAN_POINT('',(-0.090066641993582,-0.156000000000000,0.0));
#630=DIRECTION('',(-0.866025403784438,-0.500000000000001,0.0));
#631=DIRECTION('',(0.0,0.0,1.0));
#632=AXIS2_PLACEMENT_3D('',#629,#630,#631);
#633=PLANE('',#632);
#634=ORIENTED_EDGE('',*,*,#496,.T.);
#635=CARTESIAN_POINT('',(-0.180133283987163,-1.215097E-016,0.0));
#636=VERTEX_POINT('',#635);
#637=CARTESIAN_POINT('',(-0.180133283987163,-1.215097E-016,0.0));
#638=DIRECTION('',(0.0,0.0,1.0));
#639=VECTOR('',#638,0.025000000000000);
#640=LINE('',#637,#639);
#641=EDGE_CURVE('',#636,#483,#640,.T.);
#642=ORIENTED_EDGE('',*,*,#641,.F.);
#643=CARTESIAN_POINT('',(-0.180133283987163,-1.215097E-016,0.0));
#644=DIRECTION('',(0.500000000000000,-0.866025403784438,0.0));
#645=VECTOR('',#644,0.180133283987163);
#646=LINE('',#643,#645);
#647=EDGE_CURVE('',#636,#612,#646,.T.);
#648=ORIENTED_EDGE('',*,*,#647,.T.);
#649=ORIENTED_EDGE('',*,*,#617,.T.);
#650=EDGE_LOOP('',(#634,#642,#648,#649));
#651=FACE_OUTER_BOUND('',#650,.T.);
#652=ADVANCED_FACE('',(#651),#633,.T.);
#653=CARTESIAN_POINT('',(-0.180133283987163,-1.215097E-016,0.0));
#654=DIRECTION('',(-0.866025403784439,0.499999999999999,0.0));
#655=DIRECTION('',(0.0,0.0,1.0));
#656=AXIS2_PLACEMENT_3D('',#653,#654,#655);
#657=PLANE('',#656);
#658=ORIENTED_EDGE('',*,*,#488,.T.);
#659=ORIENTED_EDGE('',*,*,#552,.F.);
#660=CARTESIAN_POINT('',(-0.090066641993582,0.156000000000000,0.0));
#661=DIRECTION('',(-0.499999999999999,-0.866025403784439,0.0));
#662=VECTOR('',#661,0.180133283987163);
#663=LINE('',#660,#662);
#664=EDGE_CURVE('',#541,#636,#663,.T.);
#665=ORIENTED_EDGE('',*,*,#664,.T.);
#666=ORIENTED_EDGE('',*,*,#641,.T.);
#667=EDGE_LOOP('',(#658,#659,#665,#666));
#668=FACE_OUTER_BOUND('',#667,.T.);
#669=ADVANCED_FACE('',(#668),#657,.T.);
#670=CARTESIAN_POINT('',(0.0,0.0,0.0));
#671=DIRECTION('',(0.0,0.0,-1.0));
#672=DIRECTION('',(-1.0,0.0,0.0));
#673=AXIS2_PLACEMENT_3D('',#670,#671,#672);
#674=PLANE('',#673);
#675=ORIENTED_EDGE('',*,*,#664,.F.);
#676=ORIENTED_EDGE('',*,*,#546,.F.);
#677=ORIENTED_EDGE('',*,*,#575,.F.);
#678=ORIENTED_EDGE('',*,*,#599,.F.);
#679=ORIENTED_EDGE('',*,*,#623,.F.);
#680=ORIENTED_EDGE('',*,*,#647,.F.);
#681=EDGE_LOOP('',(#675,#676,#677,#678,#679,#680));
#682=FACE_OUTER_BOUND('',#681,.T.);
#683=ORIENTED_EDGE('',*,*,#262,.T.);
#684=EDGE_LOOP('',(#683));
#685=FACE_BOUND('',#684,.T.);
#686=ADVANCED_FACE('',(#682,#685),#674,.T.);
#687=CLOSED_SHELL('',(#146,#166,#186,#214,#234,#246,#266,#294,#306,#326,#346,#374,#386,#406,#426,#454,#466,#525,#556,#580,#604,#628,#652,#669,#686));
#688=MANIFOLD_SOLID_BREP('Solid1',#687);
#689=DRAUGHTING_PRE_DEFINED_COLOUR('white');
#690=FILL_AREA_STYLE_COLOUR('Chrome',#689);
#691=FILL_AREA_STYLE('Chrome',(#690));
#692=SURFACE_STYLE_FILL_AREA(#691);
#693=SURFACE_SIDE_STYLE('Chrome',(#692));
#694=SURFACE_STYLE_USAGE(.BOTH.,#693);
#695=PRESENTATION_STYLE_ASSIGNMENT((#694));
#696=STYLED_ITEM('',(#695),#688);
#697=MECHANICAL_DESIGN_GEOMETRIC_PRESENTATION_REPRESENTATION('',(#696),#42);
#698=ADVANCED_BREP_SHAPE_REPRESENTATION('ABSR',(#688),#87);
#699=SHAPE_REPRESENTATION_RELATIONSHIP('SRR','None',#698,#92);
#700=AXIS2_PLACEMENT_3D('',#701,#702,#703);
#701=CARTESIAN_POINT('',(0.0,0.0,0.0));
#702=DIRECTION('',(0.0,0.0,1.0));
#703=DIRECTION('',(1.0,0.0,0.0));
#704=NEXT_ASSEMBLY_USAGE_OCCURRENCE('SO-832-20 PEM THRU HOLE THD  STANDOFF:1','SO-832-20 PEM THRU HOLE THD  STANDOFF:1','SO-832-20 PEM THRU HOLE THD  STANDOFF:1',#12,#57,'SO-832-20 PEM THRU HOLE THD  STANDOFF:1');
#705=PRODUCT_DEFINITION_SHAPE('SO-832-20 PEM THRU HOLE THD  STANDOFF:1','SO-832-20 PEM THRU HOLE THD  STANDOFF:1',#704);
#706=ITEM_DEFINED_TRANSFORMATION('SO-832-20 PEM THRU HOLE THD  STANDOFF:1','SO-832-20 PEM THRU HOLE THD  STANDOFF:1',#88,#700);
#710=(REPRESENTATION_RELATIONSHIP('SO-832-20 PEM THRU HOLE THD  STANDOFF:1','SO-832-20 PEM THRU HOLE THD  STANDOFF:1',#92,#47)REPRESENTATION_RELATIONSHIP_WITH_TRANSFORMATION(#706)SHAPE_REPRESENTATION_RELATIONSHIP());
#711=CONTEXT_DEPENDENT_SHAPE_REPRESENTATION(#710,#705);
ENDSEC;
END-ISO-10303-21;
