ISO-10303-21;
HEADER;
/****************************************************************
 * Generated by software with PDE/Lib inside                    *
 * PDElib Version v51a, created Thu 01/14/2010                  *
 * ITI Transcendata (http://www.transcendata.com/)              *
 ****************************************************************/
FILE_DESCRIPTION((''),'2;1');
FILE_NAME('S:\\Engineering\\Public\\Projects\\FlatPack 2\\FP2 19in 600 15 INCH DEEP\\Workspace\\111junk\\WASHER\\SPLIT\\METRIC\\WHR SPLIT M10.stp','2012-07-02T11:36:42',('stlaus'),(''),'Autodesk Inventor 2011','Autodesk Inventor 2011','');
FILE_SCHEMA(('AUTOMOTIVE_DESIGN { 1 0 10303 214 1 1 1 1 }'));
ENDSEC;
DATA;
#5=APPLICATION_CONTEXT('automotive design');
#6=APPLICATION_PROTOCOL_DEFINITION('International Standard','automotive_design',2001,#5);
#7=PRODUCT_CONTEXT('',#5,'mechanical');
#8=PRODUCT('Assembly1','Assembly1',$,(#7));
#9=PRODUCT_RELATED_PRODUCT_CATEGORY('part',$,(#8));
#10=PRODUCT_DEFINITION_FORMATION('',$,#8);
#11=PRODUCT_DEFINITION_CONTEXT('part definition',#5,'design');
#12=PRODUCT_DEFINITION('',$,#10,#11);
#18=(NAMED_UNIT(*)PLANE_ANGLE_UNIT()SI_UNIT($,.RADIAN.));
#19=DIMENSIONAL_EXPONENTS(0.0,0.0,0.0,0.0,0.0,0.0,0.0);
#20=PLANE_ANGLE_MEASURE_WITH_UNIT(PLANE_ANGLE_MEASURE(0.017453292500000),#18);
#24=(CONVERSION_BASED_UNIT('DEGREE',#20)NAMED_UNIT(#19)PLANE_ANGLE_UNIT());
#28=(NAMED_UNIT(*)SI_UNIT($,.STERADIAN.)SOLID_ANGLE_UNIT());
#32=(LENGTH_UNIT()NAMED_UNIT(*)SI_UNIT(.CENTI.,.METRE.));
#33=DIMENSIONAL_EXPONENTS(1.0,0.0,0.0,0.0,0.0,0.0,0.0);
#34=LENGTH_MEASURE_WITH_UNIT(LENGTH_MEASURE(2.540000000000000),#32);
#38=(CONVERSION_BASED_UNIT('INCH',#34)LENGTH_UNIT()NAMED_UNIT(#33));
#40=UNCERTAINTY_MEASURE_WITH_UNIT(LENGTH_MEASURE(0.000393700787402),#38,'DISTANCE_ACCURACY_VALUE','');
#42=(GEOMETRIC_REPRESENTATION_CONTEXT(3)GLOBAL_UNCERTAINTY_ASSIGNED_CONTEXT((#40))GLOBAL_UNIT_ASSIGNED_CONTEXT((#24,#28,#38))REPRESENTATION_CONTEXT('None','None'));
#43=AXIS2_PLACEMENT_3D('',#44,#45,#46);
#44=CARTESIAN_POINT('',(0.0,0.0,0.0));
#45=DIRECTION('',(0.0,0.0,1.0));
#46=DIRECTION('',(1.0,0.0,0.0));
#47=SHAPE_REPRESENTATION('',(#43,#278),#42);
#48=PRODUCT_DEFINITION_SHAPE('','',#12);
#49=SHAPE_DEFINITION_REPRESENTATION(#48,#47);
#50=APPLICATION_CONTEXT('automotive design');
#51=APPLICATION_PROTOCOL_DEFINITION('International Standard','automotive_design',2001,#50);
#52=PRODUCT_CONTEXT('',#50,'mechanical');
#53=PRODUCT('Wshr_Split_M10Narrow','Wshr_Split_M10Narrow',$,(#52));
#54=PRODUCT_RELATED_PRODUCT_CATEGORY('part',$,(#53));
#55=PRODUCT_DEFINITION_FORMATION('',$,#53);
#56=PRODUCT_DEFINITION_CONTEXT('part definition',#50,'design');
#57=PRODUCT_DEFINITION('',$,#55,#56);
#63=(NAMED_UNIT(*)PLANE_ANGLE_UNIT()SI_UNIT($,.RADIAN.));
#64=DIMENSIONAL_EXPONENTS(0.0,0.0,0.0,0.0,0.0,0.0,0.0);
#65=PLANE_ANGLE_MEASURE_WITH_UNIT(PLANE_ANGLE_MEASURE(0.017453292500000),#63);
#69=(CONVERSION_BASED_UNIT('DEGREE',#65)NAMED_UNIT(#64)PLANE_ANGLE_UNIT());
#73=(NAMED_UNIT(*)SI_UNIT($,.STERADIAN.)SOLID_ANGLE_UNIT());
#77=(LENGTH_UNIT()NAMED_UNIT(*)SI_UNIT(.MILLI.,.METRE.));
#79=UNCERTAINTY_MEASURE_WITH_UNIT(LENGTH_MEASURE(0.010000000000000),#77,'DISTANCE_ACCURACY_VALUE','');
#81=(GEOMETRIC_REPRESENTATION_CONTEXT(3)GLOBAL_UNCERTAINTY_ASSIGNED_CONTEXT((#79))GLOBAL_UNIT_ASSIGNED_CONTEXT((#69,#73,#77))REPRESENTATION_CONTEXT('None','None'));
#82=AXIS2_PLACEMENT_3D('',#83,#84,#85);
#83=CARTESIAN_POINT('',(0.0,0.0,0.0));
#84=DIRECTION('',(0.0,0.0,1.0));
#85=DIRECTION('',(1.0,0.0,0.0));
#86=SHAPE_REPRESENTATION('',(#82),#81);
#87=PRODUCT_DEFINITION_SHAPE('','',#57);
#88=SHAPE_DEFINITION_REPRESENTATION(#87,#86);
#94=(NAMED_UNIT(*)PLANE_ANGLE_UNIT()SI_UNIT($,.RADIAN.));
#95=DIMENSIONAL_EXPONENTS(0.0,0.0,0.0,0.0,0.0,0.0,0.0);
#96=PLANE_ANGLE_MEASURE_WITH_UNIT(PLANE_ANGLE_MEASURE(0.017453292500000),#94);
#100=(CONVERSION_BASED_UNIT('DEGREE',#96)NAMED_UNIT(#95)PLANE_ANGLE_UNIT());
#104=(NAMED_UNIT(*)SI_UNIT($,.STERADIAN.)SOLID_ANGLE_UNIT());
#108=(LENGTH_UNIT()NAMED_UNIT(*)SI_UNIT(.MILLI.,.METRE.));
#110=UNCERTAINTY_MEASURE_WITH_UNIT(LENGTH_MEASURE(0.000001000000000),#108,'DISTANCE_ACCURACY_VALUE','');
#112=(GEOMETRIC_REPRESENTATION_CONTEXT(3)GLOBAL_UNCERTAINTY_ASSIGNED_CONTEXT((#110))GLOBAL_UNIT_ASSIGNED_CONTEXT((#100,#104,#108))REPRESENTATION_CONTEXT('','3D'));
#113=CARTESIAN_POINT('',(1.504549E-016,1.150000000000002,0.0));
#114=DIRECTION('',(-2.525954E-016,1.0,0.0));
#115=DIRECTION('',(-1.0,0.0,0.0));
#116=AXIS2_PLACEMENT_3D('',#113,#114,#115);
#117=CYLINDRICAL_SURFACE('',#116,5.559999999999999);
#118=CARTESIAN_POINT('',(-5.538842521390103,2.300000000000000,-0.484585929676980));
#119=VERTEX_POINT('',#118);
#120=CARTESIAN_POINT('',(-5.538842521390105,5.512160E-016,-0.484585929676980));
#121=VERTEX_POINT('',#120);
#122=CARTESIAN_POINT('',(-5.538842521390103,2.300000000000000,-0.484585929676980));
#123=DIRECTION('',(0.0,-1.0,0.0));
#124=VECTOR('',#123,2.299999999999999);
#125=LINE('',#122,#124);
#126=EDGE_CURVE('',#119,#121,#125,.T.);
#127=ORIENTED_EDGE('',*,*,#126,.T.);
#128=CARTESIAN_POINT('',(-5.560000000000000,6.551919E-016,0.0));
#129=VERTEX_POINT('',#128);
#130=CARTESIAN_POINT('',(4.409396E-016,1.942890E-015,0.0));
#131=DIRECTION('',(0.0,1.0,0.0));
#132=DIRECTION('',(-1.0,0.0,0.0));
#133=AXIS2_PLACEMENT_3D('',#130,#131,#132);
#134=CIRCLE('',#133,5.560000000000000);
#135=EDGE_CURVE('',#129,#121,#134,.T.);
#136=ORIENTED_EDGE('',*,*,#135,.F.);
#137=CARTESIAN_POINT('',(-5.559999999999999,2.300000000000000,0.0));
#138=VERTEX_POINT('',#137);
#139=CARTESIAN_POINT('',(-5.559999999999999,2.300000000000000,0.0));
#140=DIRECTION('',(0.0,-1.0,0.0));
#141=VECTOR('',#140,2.299999999999999);
#142=LINE('',#139,#141);
#143=EDGE_CURVE('',#138,#129,#142,.T.);
#144=ORIENTED_EDGE('',*,*,#143,.F.);
#145=CARTESIAN_POINT('',(-1.400298E-016,2.300000000000001,0.0));
#146=DIRECTION('',(0.0,1.0,0.0));
#147=DIRECTION('',(-1.0,0.0,0.0));
#148=AXIS2_PLACEMENT_3D('',#145,#146,#147);
#149=CIRCLE('',#148,5.559999999999999);
#150=EDGE_CURVE('',#138,#119,#149,.T.);
#151=ORIENTED_EDGE('',*,*,#150,.T.);
#152=EDGE_LOOP('',(#127,#136,#144,#151));
#153=FACE_OUTER_BOUND('',#152,.T.);
#154=ADVANCED_FACE('',(#153),#117,.F.);
#155=CARTESIAN_POINT('',(-7.780000000000000,3.833293E-016,0.0));
#156=DIRECTION('',(0.0,-1.0,0.0));
#157=DIRECTION('',(0.0,0.0,-1.0));
#158=AXIS2_PLACEMENT_3D('',#155,#156,#157);
#159=PLANE('',#158);
#160=CARTESIAN_POINT('',(-9.961946980917455,-1.092842E-017,-0.871557427476583));
#161=VERTEX_POINT('',#160);
#162=CARTESIAN_POINT('',(-5.538842521390105,6.665391E-016,-0.484585929676980));
#163=DIRECTION('',(-0.996194698091746,-1.204198E-016,-0.087155742747658));
#164=VECTOR('',#163,4.440000000000001);
#165=LINE('',#162,#164);
#166=EDGE_CURVE('',#121,#161,#165,.T.);
#167=ORIENTED_EDGE('',*,*,#166,.T.);
#168=CARTESIAN_POINT('',(-10.0,1.114666E-016,0.0));
#169=VERTEX_POINT('',#168);
#170=CARTESIAN_POINT('',(4.409396E-016,2.498002E-015,0.0));
#171=DIRECTION('',(0.0,1.0,0.0));
#172=DIRECTION('',(-1.0,0.0,0.0));
#173=AXIS2_PLACEMENT_3D('',#170,#171,#172);
#174=CIRCLE('',#173,10.0);
#175=EDGE_CURVE('',#169,#161,#174,.T.);
#176=ORIENTED_EDGE('',*,*,#175,.F.);
#177=CARTESIAN_POINT('',(-5.560000000000000,6.551919E-016,0.0));
#178=DIRECTION('',(-1.0,0.0,0.0));
#179=VECTOR('',#178,4.440000000000000);
#180=LINE('',#177,#179);
#181=EDGE_CURVE('',#129,#169,#180,.T.);
#182=ORIENTED_EDGE('',*,*,#181,.F.);
#183=ORIENTED_EDGE('',*,*,#135,.T.);
#184=EDGE_LOOP('',(#167,#176,#182,#183));
#185=FACE_OUTER_BOUND('',#184,.T.);
#186=ADVANCED_FACE('',(#185),#159,.T.);
#187=CARTESIAN_POINT('',(1.504549E-016,1.150000000000002,0.0));
#188=DIRECTION('',(-2.525954E-016,1.0,0.0));
#189=DIRECTION('',(-1.0,0.0,0.0));
#190=AXIS2_PLACEMENT_3D('',#187,#188,#189);
#191=CYLINDRICAL_SURFACE('',#190,10.0);
#192=CARTESIAN_POINT('',(-9.961946980917455,2.300000000000000,-0.871557427476583));
#193=VERTEX_POINT('',#192);
#194=CARTESIAN_POINT('',(-9.961946980917455,1.318754E-016,-0.871557427476583));
#195=DIRECTION('',(0.0,1.0,0.0));
#196=VECTOR('',#195,2.300000000000000);
#197=LINE('',#194,#196);
#198=EDGE_CURVE('',#161,#193,#197,.T.);
#199=ORIENTED_EDGE('',*,*,#198,.T.);
#200=CARTESIAN_POINT('',(-10.0,2.300000000000000,0.0));
#201=VERTEX_POINT('',#200);
#202=CARTESIAN_POINT('',(-1.400298E-016,2.300000000000003,0.0));
#203=DIRECTION('',(0.0,1.0,0.0));
#204=DIRECTION('',(-1.0,0.0,0.0));
#205=AXIS2_PLACEMENT_3D('',#202,#203,#204);
#206=CIRCLE('',#205,10.0);
#207=EDGE_CURVE('',#201,#193,#206,.T.);
#208=ORIENTED_EDGE('',*,*,#207,.F.);
#209=CARTESIAN_POINT('',(-10.0,1.114666E-016,0.0));
#210=DIRECTION('',(0.0,1.0,0.0));
#211=VECTOR('',#210,2.300000000000000);
#212=LINE('',#209,#211);
#213=EDGE_CURVE('',#169,#201,#212,.T.);
#214=ORIENTED_EDGE('',*,*,#213,.F.);
#215=ORIENTED_EDGE('',*,*,#175,.T.);
#216=EDGE_LOOP('',(#199,#208,#214,#215));
#217=FACE_OUTER_BOUND('',#216,.T.);
#218=ADVANCED_FACE('',(#217),#191,.T.);
#219=CARTESIAN_POINT('',(-7.779999999999999,2.300000000000000,0.0));
#220=DIRECTION('',(0.0,1.0,0.0));
#221=DIRECTION('',(0.0,0.0,1.0));
#222=AXIS2_PLACEMENT_3D('',#219,#220,#221);
#223=PLANE('',#222);
#224=CARTESIAN_POINT('',(-9.961946980917455,2.300000000000000,-0.871557427476583));
#225=DIRECTION('',(0.996194698091746,0.0,0.087155742747658));
#226=VECTOR('',#225,4.440000000000001);
#227=LINE('',#224,#226);
#228=EDGE_CURVE('',#193,#119,#227,.T.);
#229=ORIENTED_EDGE('',*,*,#228,.T.);
#230=ORIENTED_EDGE('',*,*,#150,.F.);
#231=CARTESIAN_POINT('',(-10.0,2.300000000000000,0.0));
#232=DIRECTION('',(1.0,0.0,0.0));
#233=VECTOR('',#232,4.440000000000001);
#234=LINE('',#231,#233);
#235=EDGE_CURVE('',#201,#138,#234,.T.);
#236=ORIENTED_EDGE('',*,*,#235,.F.);
#237=ORIENTED_EDGE('',*,*,#207,.T.);
#238=EDGE_LOOP('',(#229,#230,#236,#237));
#239=FACE_OUTER_BOUND('',#238,.T.);
#240=ADVANCED_FACE('',(#239),#223,.T.);
#241=CARTESIAN_POINT('',(-7.750394751153778,1.150000000000000,-0.678071678576782));
#242=DIRECTION('',(-0.087155742747658,-1.931084E-017,0.996194698091746));
#243=DIRECTION('',(0.996194698091746,-2.040877E-018,0.087155742747658));
#244=AXIS2_PLACEMENT_3D('',#241,#242,#243);
#245=PLANE('',#244);
#246=ORIENTED_EDGE('',*,*,#126,.F.);
#247=ORIENTED_EDGE('',*,*,#228,.F.);
#248=ORIENTED_EDGE('',*,*,#198,.F.);
#249=ORIENTED_EDGE('',*,*,#166,.F.);
#250=EDGE_LOOP('',(#246,#247,#248,#249));
#251=FACE_OUTER_BOUND('',#250,.T.);
#252=ADVANCED_FACE('',(#251),#245,.T.);
#253=CARTESIAN_POINT('',(-7.779999999999999,1.150000000000000,0.0));
#254=DIRECTION('',(0.0,0.0,1.0));
#255=DIRECTION('',(1.0,0.0,0.0));
#256=AXIS2_PLACEMENT_3D('',#253,#254,#255);
#257=PLANE('',#256);
#258=ORIENTED_EDGE('',*,*,#235,.T.);
#259=ORIENTED_EDGE('',*,*,#143,.T.);
#260=ORIENTED_EDGE('',*,*,#181,.T.);
#261=ORIENTED_EDGE('',*,*,#213,.T.);
#262=EDGE_LOOP('',(#258,#259,#260,#261));
#263=FACE_OUTER_BOUND('',#262,.T.);
#264=ADVANCED_FACE('',(#263),#257,.F.);
#265=CLOSED_SHELL('',(#154,#186,#218,#240,#252,#264));
#266=MANIFOLD_SOLID_BREP('Solid1',#265);
#267=COLOUR_RGB('Zinc',0.678431391716003,0.768627464771271,0.811764717102051);
#268=FILL_AREA_STYLE_COLOUR('Zinc',#267);
#269=FILL_AREA_STYLE('Zinc',(#268));
#270=SURFACE_STYLE_FILL_AREA(#269);
#271=SURFACE_SIDE_STYLE('Zinc',(#270));
#272=SURFACE_STYLE_USAGE(.BOTH.,#271);
#273=PRESENTATION_STYLE_ASSIGNMENT((#272));
#274=STYLED_ITEM('',(#273),#266);
#275=MECHANICAL_DESIGN_GEOMETRIC_PRESENTATION_REPRESENTATION('',(#274),#42);
#276=ADVANCED_BREP_SHAPE_REPRESENTATION('ABSR',(#266),#81);
#277=SHAPE_REPRESENTATION_RELATIONSHIP('SRR','None',#276,#86);
#278=AXIS2_PLACEMENT_3D('',#279,#280,#281);
#279=CARTESIAN_POINT('',(0.0,0.0,0.0));
#280=DIRECTION('',(0.0,0.0,1.0));
#281=DIRECTION('',(1.0,0.0,0.0));
#282=NEXT_ASSEMBLY_USAGE_OCCURRENCE('Wshr_Split_M10Narrow:1','Wshr_Split_M10Narrow:1','Wshr_Split_M10Narrow:1',#12,#57,'Wshr_Split_M10Narrow:1');
#283=PRODUCT_DEFINITION_SHAPE('Wshr_Split_M10Narrow:1','Wshr_Split_M10Narrow:1',#282);
#284=ITEM_DEFINED_TRANSFORMATION('Wshr_Split_M10Narrow:1','Wshr_Split_M10Narrow:1',#82,#278);
#288=(REPRESENTATION_RELATIONSHIP('Wshr_Split_M10Narrow:1','Wshr_Split_M10Narrow:1',#86,#47)REPRESENTATION_RELATIONSHIP_WITH_TRANSFORMATION(#284)SHAPE_REPRESENTATION_RELATIONSHIP());
#289=CONTEXT_DEPENDENT_SHAPE_REPRESENTATION(#288,#283);
ENDSEC;
END-ISO-10303-21;
