ISO-10303-21;
HEADER;
FILE_DESCRIPTION(('starvars output'),'2;1');
FILE_NAME('cv20120701154340000001103.stp','15:43:41   2012/07/01',(
   'Thomas Industrial Network Germany GmbH'),(
   'Thomas Industrial Network Germany GmbH'),'unknown preprocess','ACIS'
   ,'unknown authorization');
FILE_SCHEMA(('CONFIG_CONTROL_DESIGN {UNKNOWN IMPLEMENTATION LEVEL}'));
ENDSEC;
/* ISO 10303-21 file written by STEP Caselib, ProSTEP GmbH, Germany */
DATA;
#1=CARTESIAN_POINT('POINT2310',(-5.80885900903875E-016,0.0E+000,
   3.1623E+000));
#2=VERTEX_POINT('VERTEX2310',#1);
#3=CARTESIAN_POINT('POINT2311',(2.22738461538461E-001,
   -1.36383467620311E-017,3.1623E+000));
#4=VERTEX_POINT('VERTEX2311',#3);
#5=CARTESIAN_POINT('POS2952',(1.1136923076923E-001,
   -8.79729497548451E-016,3.1623E+000));
#6=DIRECTION('DIR4717',(1.0E+000,0.0E+000,1.83690953073357E-016));
#7=VECTOR('VEC1187',#6,1.0E+000);
#8=LINE('STRAIGHT1187',#5,#7);
#9=EDGE_CURVE('EDGE3684',#2,#4,#8,.T.);
#10=ORIENTED_EDGE('COEDGE7367',*,*,#9,.F.);
#11=CARTESIAN_POINT('POINT2312',(5.80885900903875E-016,
   8.79729497548451E-016,-3.1623E+000));
#12=VERTEX_POINT('VERTEX2312',#11);
#13=CARTESIAN_POINT('POS2953',(0.0E+000,0.0E+000,0.0E+000));
#14=DIRECTION('DIR4718',(1.0E+000,0.0E+000,1.83690953073357E-016));
#15=DIRECTION('DIR4719',(-1.83690953073357E-016,-4.00653563804099E-016,
   1.0E+000));
#16=AXIS2_PLACEMENT_3D('AXIS1766',#13,#14,#15);
#17=CIRCLE('ELLIPSE918',#16,3.1623E+000);
#18=EDGE_CURVE('EDGE3685',#2,#12,#17,.T.);
#19=ORIENTED_EDGE('COEDGE7368',*,*,#18,.T.);
#20=CARTESIAN_POINT('POINT2313',(2.22738461538462E-001,
   8.79729497548451E-016,-3.1623E+000));
#21=VERTEX_POINT('VERTEX2313',#20);
#22=CARTESIAN_POINT('POS2954',(1.11369230769231E-001,
   8.79729497548451E-016,-3.1623E+000));
#23=DIRECTION('DIR4720',(-1.0E+000,-0.0E+000,-1.83690953073357E-016));
#24=VECTOR('VEC1188',#23,1.0E+000);
#25=LINE('STRAIGHT1188',#22,#24);
#26=EDGE_CURVE('EDGE3686',#21,#12,#25,.T.);
#27=ORIENTED_EDGE('COEDGE7369',*,*,#26,.F.);
#28=CARTESIAN_POINT('POS2955',(2.22738461538462E-001,0.0E+000,
   4.09150402860932E-017));
#29=DIRECTION('DIR4721',(1.0E+000,0.0E+000,1.83690953073357E-016));
#30=DIRECTION('DIR4722',(-1.83690953073357E-016,-4.00653563804099E-016,
   1.0E+000));
#31=AXIS2_PLACEMENT_3D('AXIS1767',#28,#29,#30);
#32=CIRCLE('ELLIPSE919',#31,3.1623E+000);
#33=EDGE_CURVE('EDGE3687',#4,#21,#32,.T.);
#34=ORIENTED_EDGE('COEDGE7370',*,*,#33,.F.);
#35=EDGE_LOOP('NONE',(#10,#19,#27,#34));
#36=FACE_BOUND('LOOP1',#35,.T.);
#37=CARTESIAN_POINT('POS2956',(1.11369230769231E-001,0.0E+000,
   2.04575201430466E-017));
#38=DIRECTION('DIR4723',(1.0E+000,0.0E+000,1.83690953073357E-016));
#39=DIRECTION('DIR4724',(-1.83690953073357E-016,-4.00653563804099E-016,
   1.0E+000));
#40=AXIS2_PLACEMENT_3D('AXIS1768',#37,#38,#39);
#41=CYLINDRICAL_SURFACE('CONE_SURF385',#40,3.1623E+000);
#42=ADVANCED_FACE('FACE1551',(#36),#41,.T.);
#43=ORIENTED_EDGE('COEDGE7371',*,*,#9,.T.);
#44=EDGE_CURVE('EDGE3688',#21,#4,#32,.T.);
#45=ORIENTED_EDGE('COEDGE7372',*,*,#44,.F.);
#46=ORIENTED_EDGE('COEDGE7373',*,*,#26,.T.);
#47=EDGE_CURVE('EDGE3689',#12,#2,#17,.T.);
#48=ORIENTED_EDGE('COEDGE7374',*,*,#47,.T.);
#49=EDGE_LOOP('NONE',(#43,#45,#46,#48));
#50=FACE_BOUND('LOOP1',#49,.T.);
#51=ADVANCED_FACE('FACE1552',(#50),#41,.T.);
#52=CARTESIAN_POINT('POINT2314',(1.4774875658867E-016,0.0E+000,
   -2.413E+000));
#53=VERTEX_POINT('VERTEX2314',#52);
#54=CARTESIAN_POINT('POINT2315',(-8.04068752769185E-016,
   -2.95252654606421E-016,2.413E+000));
#55=VERTEX_POINT('VERTEX2315',#54);
#56=CARTESIAN_POINT('POS2957',(-3.52495810318487E-016,
   -3.91348964699486E-032,-1.95674482349743E-032));
#57=DIRECTION('DIR4725',(1.0E+000,0.0E+000,6.12303176911189E-017));
#58=DIRECTION('DIR4726',(6.12303176911189E-017,0.0E+000,-1.0E+000));
#59=AXIS2_PLACEMENT_3D('AXIS1769',#56,#57,#58);
#60=CIRCLE('ELLIPSE920',#59,2.413E+000);
#61=EDGE_CURVE('EDGE3690',#53,#55,#60,.T.);
#62=ORIENTED_EDGE('COEDGE7375',*,*,#61,.T.);
#63=EDGE_CURVE('EDGE3691',#55,#53,#60,.T.);
#64=ORIENTED_EDGE('COEDGE7376',*,*,#63,.T.);
#65=EDGE_LOOP('NONE',(#62,#64));
#66=FACE_BOUND('LOOP1',#65,.T.);
#67=ORIENTED_EDGE('COEDGE7377',*,*,#18,.F.);
#68=ORIENTED_EDGE('COEDGE7378',*,*,#47,.F.);
#69=EDGE_LOOP('NONE',(#67,#68));
#70=FACE_BOUND('LOOP1',#69,.T.);
#71=CARTESIAN_POINT('POS2958',(-2.90442950451938E-016,0.0E+000,
   1.58115E+000));
#72=DIRECTION('DIR4727',(-1.0E+000,0.0E+000,-1.83690953073357E-016));
#73=DIRECTION('DIR4728',(0.0E+000,1.0E+000,0.0E+000));
#74=AXIS2_PLACEMENT_3D('AXIS1770',#71,#72,#73);
#75=PLANE('PLANE402',#74);
#76=ADVANCED_FACE('FACE1553',(#66,#70),#75,.T.);
#77=CARTESIAN_POINT('POINT2316',(4.82599999999999E-001,
   -8.65067339255977E-016,3.109595E+000));
#78=VERTEX_POINT('VERTEX2316',#77);
#79=CARTESIAN_POINT('POS2959',(5.9396923076923E-001,
   -8.58783557130631E-016,3.08700714285714E+000));
#80=DIRECTION('DIR4729',(9.80045674654144E-001,5.52970820564912E-017,
   -1.98772421607485E-001));
#81=VECTOR('VEC1189',#80,1.0E+000);
#82=LINE('STRAIGHT1189',#79,#81);
#83=EDGE_CURVE('EDGE3692',#4,#78,#82,.T.);
#84=ORIENTED_EDGE('COEDGE7379',*,*,#83,.F.);
#85=ORIENTED_EDGE('COEDGE7380',*,*,#33,.T.);
#86=CARTESIAN_POINT('POINT2317',(4.826E-001,1.62667329821884E-015,
   -3.109595E+000));
#87=VERTEX_POINT('VERTEX2317',#86);
#88=CARTESIAN_POINT('POS2960',(5.93969230769231E-001,
   8.58783557130631E-016,-3.08700714285714E+000));
#89=DIRECTION('DIR4730',(-9.80045674654144E-001,5.52970820564912E-017,
   -1.98772421607486E-001));
#90=VECTOR('VEC1190',#89,1.0E+000);
#91=LINE('STRAIGHT1190',#88,#90);
#92=EDGE_CURVE('EDGE3693',#87,#21,#91,.T.);
#93=ORIENTED_EDGE('COEDGE7381',*,*,#92,.F.);
#94=CARTESIAN_POINT('POS2961',(4.826E-001,0.0E+000,8.86492539532019E-017
   ));
#95=DIRECTION('DIR4731',(1.0E+000,-1.31402812947865E-033,
   1.83690953073357E-016));
#96=DIRECTION('DIR4732',(-1.83690953073357E-016,-4.00653563804099E-016,
   1.0E+000));
#97=AXIS2_PLACEMENT_3D('AXIS1771',#94,#95,#96);
#98=CIRCLE('ELLIPSE921',#97,3.109595E+000);
#99=EDGE_CURVE('EDGE3694',#78,#87,#98,.T.);
#100=ORIENTED_EDGE('COEDGE7382',*,*,#99,.F.);
#101=EDGE_LOOP('NONE',(#84,#85,#93,#100));
#102=FACE_BOUND('LOOP1',#101,.T.);
#103=CARTESIAN_POINT('POS2962',(5.93969230769231E-001,0.0E+000,
   1.09106774096248E-016));
#104=DIRECTION('DIR4733',(-1.0E+000,0.0E+000,-1.83690953073357E-016));
#105=DIRECTION('DIR4734',(-1.83690953073357E-016,-4.00653563804099E-016,
   1.0E+000));
#106=AXIS2_PLACEMENT_3D('AXIS1772',#103,#104,#105);
#107=CONICAL_SURFACE('CONE_SURF386',#106,3.08700714285714E+000,
   2.00105188682125E-001);
#108=ADVANCED_FACE('FACE1554',(#102),#107,.T.);
#109=ORIENTED_EDGE('COEDGE7383',*,*,#83,.T.);
#110=EDGE_CURVE('EDGE3695',#87,#78,#98,.T.);
#111=ORIENTED_EDGE('COEDGE7384',*,*,#110,.F.);
#112=ORIENTED_EDGE('COEDGE7385',*,*,#92,.T.);
#113=ORIENTED_EDGE('COEDGE7386',*,*,#44,.T.);
#114=EDGE_LOOP('NONE',(#109,#111,#112,#113));
#115=FACE_BOUND('LOOP1',#114,.T.);
#116=ADVANCED_FACE('FACE1555',(#115),#107,.T.);
#117=CARTESIAN_POINT('POINT2318',(4.2926E-001,7.8851178516269E-017,
   1.98374E+000));
#118=VERTEX_POINT('VERTEX2318',#117);
#119=CARTESIAN_POINT('POS2963',(2.1463E-001,-2.4270698178776E-016,
   2.19837E+000));
#120=DIRECTION('DIR4735',(-7.07106781186548E-001,-1.73113737930786E-016,
   7.07106781186547E-001));
#121=VECTOR('VEC1191',#120,1.0E+000);
#122=LINE('STRAIGHT1191',#119,#121);
#123=EDGE_CURVE('EDGE3696',#118,#55,#122,.T.);
#124=ORIENTED_EDGE('COEDGE7387',*,*,#123,.T.);
#125=ORIENTED_EDGE('COEDGE7388',*,*,#61,.F.);
#126=CARTESIAN_POINT('POINT2319',(4.2926E-001,2.95296213657458E-016,
   -1.98374E+000));
#127=VERTEX_POINT('VERTEX2319',#126);
#128=CARTESIAN_POINT('POS2964',(2.1463E-001,2.95274434131939E-016,
   -2.19837E+000));
#129=DIRECTION('DIR4736',(7.07106781186548E-001,7.17534836007648E-020,
   7.07106781186548E-001));
#130=VECTOR('VEC1192',#129,1.0E+000);
#131=LINE('STRAIGHT1192',#128,#130);
#132=EDGE_CURVE('EDGE3697',#53,#127,#131,.T.);
#133=ORIENTED_EDGE('COEDGE7389',*,*,#132,.T.);
#134=CARTESIAN_POINT('POS2965',(4.2926E-001,5.25674523441794E-017,
   2.62837261720897E-017));
#135=DIRECTION('DIR4737',(-1.0E+000,-1.22460635382238E-016,
   -6.12303176911189E-017));
#136=DIRECTION('DIR4738',(-6.12303176911189E-017,1.01474749655682E-019,
   1.0E+000));
#137=AXIS2_PLACEMENT_3D('AXIS1773',#134,#135,#136);
#138=CIRCLE('ELLIPSE922',#137,1.98374E+000);
#139=EDGE_CURVE('EDGE3698',#118,#127,#138,.T.);
#140=ORIENTED_EDGE('COEDGE7390',*,*,#139,.F.);
#141=EDGE_LOOP('NONE',(#124,#125,#133,#140));
#142=FACE_BOUND('LOOP1',#141,.T.);
#143=CARTESIAN_POINT('POS2966',(2.1463E-001,2.62837261720897E-017,
   1.31418630860448E-017));
#144=DIRECTION('DIR4739',(-1.0E+000,-1.22460635382238E-016,
   -6.12303176911189E-017));
#145=DIRECTION('DIR4740',(-6.12303176911189E-017,1.01474749655682E-019,
   1.0E+000));
#146=AXIS2_PLACEMENT_3D('AXIS1774',#143,#144,#145);
#147=CONICAL_SURFACE('CONE_SURF387',#146,2.19837E+000,
   7.85398163397448E-001);
#148=ADVANCED_FACE('FACE1556',(#142),#147,.F.);
#149=ORIENTED_EDGE('COEDGE7391',*,*,#123,.F.);
#150=EDGE_CURVE('EDGE3699',#127,#118,#138,.T.);
#151=ORIENTED_EDGE('COEDGE7392',*,*,#150,.F.);
#152=ORIENTED_EDGE('COEDGE7393',*,*,#132,.F.);
#153=ORIENTED_EDGE('COEDGE7394',*,*,#63,.F.);
#154=EDGE_LOOP('NONE',(#149,#151,#152,#153));
#155=FACE_BOUND('LOOP1',#154,.T.);
#156=ADVANCED_FACE('FACE1557',(#155),#147,.F.);
#157=ORIENTED_EDGE('COEDGE7395',*,*,#110,.T.);
#158=ORIENTED_EDGE('COEDGE7396',*,*,#99,.T.);
#159=EDGE_LOOP('NONE',(#157,#158));
#160=FACE_BOUND('LOOP1',#159,.T.);
#161=CARTESIAN_POINT('POINT2320',(4.82599999999999E-001,0.0E+000,
   3.74015E+000));
#162=VERTEX_POINT('VERTEX2320',#161);
#163=CARTESIAN_POINT('POINT2321',(4.82600000000001E-001,
   4.58021145424876E-016,-3.74015E+000));
#164=VERTEX_POINT('VERTEX2321',#163);
#165=CARTESIAN_POINT('POS2967',(4.826E-001,0.0E+000,
   -8.70664651486663E-017));
#166=DIRECTION('DIR4741',(-1.0E+000,0.0E+000,-1.80411241501588E-016));
#167=DIRECTION('DIR4742',(-1.80411241501588E-016,0.0E+000,1.0E+000));
#168=AXIS2_PLACEMENT_3D('AXIS1775',#165,#166,#167);
#169=CIRCLE('ELLIPSE923',#168,3.74015E+000);
#170=EDGE_CURVE('EDGE3700',#162,#164,#169,.T.);
#171=ORIENTED_EDGE('COEDGE7397',*,*,#170,.T.);
#172=EDGE_CURVE('EDGE3701',#164,#162,#169,.T.);
#173=ORIENTED_EDGE('COEDGE7398',*,*,#172,.T.);
#174=EDGE_LOOP('NONE',(#171,#173));
#175=FACE_BOUND('LOOP1',#174,.T.);
#176=CARTESIAN_POINT('POS2968',(4.826E-001,0.0E+000,
   -8.70664651486663E-017));
#177=DIRECTION('DIR4743',(-1.0E+000,0.0E+000,-1.80411241501588E-016));
#178=DIRECTION('DIR4744',(0.0E+000,1.0E+000,0.0E+000));
#179=AXIS2_PLACEMENT_3D('AXIS1776',#176,#177,#178);
#180=PLANE('PLANE403',#179);
#181=ADVANCED_FACE('FACE1558',(#160,#175),#180,.T.);
#182=CARTESIAN_POINT('POINT2322',(2.82194E+000,5.18364848115828E-016,
   1.98374E+000));
#183=VERTEX_POINT('VERTEX2322',#182);
#184=CARTESIAN_POINT('POS2969',(1.6256E+000,-4.36567524359127E-017,
   1.98374E+000));
#185=DIRECTION('DIR4745',(-1.0E+000,-1.22460635382238E-016,
   -6.12303176911189E-017));
#186=VECTOR('VEC1193',#185,1.0E+000);
#187=LINE('STRAIGHT1193',#184,#186);
#188=EDGE_CURVE('EDGE3702',#183,#118,#187,.T.);
#189=ORIENTED_EDGE('COEDGE7399',*,*,#188,.T.);
#190=ORIENTED_EDGE('COEDGE7400',*,*,#139,.T.);
#191=CARTESIAN_POINT('POINT2323',(2.82194E+000,5.8830532672383E-016,
   -1.98374E+000));
#192=VERTEX_POINT('VERTEX2323',#191);
#193=CARTESIAN_POINT('POS2970',(1.6256E+000,4.41800770190644E-016,
   -1.98374E+000));
#194=DIRECTION('DIR4746',(1.0E+000,1.22460635382238E-016,
   6.12303176911189E-017));
#195=VECTOR('VEC1194',#194,1.0E+000);
#196=LINE('STRAIGHT1194',#193,#195);
#197=EDGE_CURVE('EDGE3703',#127,#192,#196,.T.);
#198=ORIENTED_EDGE('COEDGE7401',*,*,#197,.T.);
#199=CARTESIAN_POINT('POS2971',(2.82194E+000,3.45576565410552E-016,
   1.72788282705276E-016));
#200=DIRECTION('DIR4747',(-1.0E+000,-1.22460635382238E-016,
   -6.12303176911189E-017));
#201=DIRECTION('DIR4748',(-6.12303176911189E-017,1.01474749655682E-019,
   1.0E+000));
#202=AXIS2_PLACEMENT_3D('AXIS1777',#199,#200,#201);
#203=CIRCLE('ELLIPSE924',#202,1.98374E+000);
#204=EDGE_CURVE('EDGE3704',#183,#192,#203,.T.);
#205=ORIENTED_EDGE('COEDGE7402',*,*,#204,.F.);
#206=EDGE_LOOP('NONE',(#189,#190,#198,#205));
#207=FACE_BOUND('LOOP1',#206,.T.);
#208=CARTESIAN_POINT('POS2972',(1.6256E+000,1.99072008877366E-016,
   9.95360044386828E-017));
#209=DIRECTION('DIR4749',(-1.0E+000,-1.22460635382238E-016,
   -6.12303176911189E-017));
#210=DIRECTION('DIR4750',(-6.12303176911189E-017,1.01474749655682E-019,
   1.0E+000));
#211=AXIS2_PLACEMENT_3D('AXIS1778',#208,#209,#210);
#212=CYLINDRICAL_SURFACE('CONE_SURF388',#211,1.98374E+000);
#213=ADVANCED_FACE('FACE1559',(#207),#212,.F.);
#214=ORIENTED_EDGE('COEDGE7403',*,*,#188,.F.);
#215=EDGE_CURVE('EDGE3705',#192,#183,#203,.T.);
#216=ORIENTED_EDGE('COEDGE7404',*,*,#215,.F.);
#217=ORIENTED_EDGE('COEDGE7405',*,*,#197,.F.);
#218=ORIENTED_EDGE('COEDGE7406',*,*,#150,.T.);
#219=EDGE_LOOP('NONE',(#214,#216,#217,#218));
#220=FACE_BOUND('LOOP1',#219,.T.);
#221=ADVANCED_FACE('FACE1560',(#220),#212,.F.);
#222=CARTESIAN_POINT('POINT2324',(9.65199999999999E-001,0.0E+000,
   3.74015E+000));
#223=VERTEX_POINT('VERTEX2324',#222);
#224=CARTESIAN_POINT('POS2973',(7.23899999999999E-001,
   -4.58021145424876E-016,3.74015E+000));
#225=DIRECTION('DIR4751',(-1.0E+000,0.0E+000,-1.80411241501588E-016));
#226=VECTOR('VEC1195',#225,1.0E+000);
#227=LINE('STRAIGHT1195',#224,#226);
#228=EDGE_CURVE('EDGE3706',#223,#162,#227,.T.);
#229=ORIENTED_EDGE('COEDGE7407',*,*,#228,.F.);
#230=CARTESIAN_POINT('POINT2325',(9.65200000000001E-001,
   4.58021145424876E-016,-3.74015E+000));
#231=VERTEX_POINT('VERTEX2325',#230);
#232=CARTESIAN_POINT('POS2974',(9.652E-001,0.0E+000,
   4.89186205874358E-032));
#233=DIRECTION('DIR4752',(1.0E+000,0.0E+000,1.80411241501588E-016));
#234=DIRECTION('DIR4753',(-1.80411241501588E-016,0.0E+000,1.0E+000));
#235=AXIS2_PLACEMENT_3D('AXIS1779',#232,#233,#234);
#236=CIRCLE('ELLIPSE925',#235,3.74015E+000);
#237=EDGE_CURVE('EDGE3707',#231,#223,#236,.T.);
#238=ORIENTED_EDGE('COEDGE7408',*,*,#237,.F.);
#239=CARTESIAN_POINT('POS2975',(7.23900000000001E-001,
   4.58021145424876E-016,-3.74015E+000));
#240=DIRECTION('DIR4754',(1.0E+000,-0.0E+000,1.80411241501588E-016));
#241=VECTOR('VEC1196',#240,1.0E+000);
#242=LINE('STRAIGHT1196',#239,#241);
#243=EDGE_CURVE('EDGE3708',#164,#231,#242,.T.);
#244=ORIENTED_EDGE('COEDGE7409',*,*,#243,.F.);
#245=ORIENTED_EDGE('COEDGE7410',*,*,#170,.F.);
#246=EDGE_LOOP('NONE',(#229,#238,#244,#245));
#247=FACE_BOUND('LOOP1',#246,.T.);
#248=CARTESIAN_POINT('POS2976',(7.239E-001,0.0E+000,
   -4.35332325743332E-017));
#249=DIRECTION('DIR4755',(-1.0E+000,0.0E+000,-1.80411241501588E-016));
#250=DIRECTION('DIR4756',(-1.80411241501588E-016,0.0E+000,1.0E+000));
#251=AXIS2_PLACEMENT_3D('AXIS1780',#248,#249,#250);
#252=CYLINDRICAL_SURFACE('CONE_SURF389',#251,3.74015E+000);
#253=ADVANCED_FACE('FACE1561',(#247),#252,.T.);
#254=ORIENTED_EDGE('COEDGE7411',*,*,#228,.T.);
#255=ORIENTED_EDGE('COEDGE7412',*,*,#172,.F.);
#256=ORIENTED_EDGE('COEDGE7413',*,*,#243,.T.);
#257=EDGE_CURVE('EDGE3709',#223,#231,#236,.T.);
#258=ORIENTED_EDGE('COEDGE7414',*,*,#257,.F.);
#259=EDGE_LOOP('NONE',(#254,#255,#256,#258));
#260=FACE_BOUND('LOOP1',#259,.T.);
#261=ADVANCED_FACE('FACE1562',(#260),#252,.T.);
#262=CARTESIAN_POINT('POINT2326',(3.2512E+000,1.02891363148311E-016,
   2.413E+000));
#263=VERTEX_POINT('VERTEX2326',#262);
#264=CARTESIAN_POINT('POS2977',(3.03657E+000,1.02869583622792E-016,
   2.19837E+000));
#265=DIRECTION('DIR4757',(-7.07106781186547E-001,-7.175348360072E-020,
   -7.07106781186548E-001));
#266=VECTOR('VEC1197',#265,1.0E+000);
#267=LINE('STRAIGHT1197',#264,#266);
#268=EDGE_CURVE('EDGE3710',#263,#183,#267,.T.);
#269=ORIENTED_EDGE('COEDGE7415',*,*,#268,.T.);
#270=ORIENTED_EDGE('COEDGE7416',*,*,#204,.T.);
#271=CARTESIAN_POINT('POINT2327',(3.2512E+000,5.97216026632097E-016,
   -2.413E+000));
#272=VERTEX_POINT('VERTEX2327',#271);
#273=CARTESIAN_POINT('POS2978',(3.03657E+000,6.40850999542491E-016,
   -2.19837E+000));
#274=DIRECTION('DIR4758',(7.07106781186547E-001,1.73113737930786E-016,
   -7.07106781186548E-001));
#275=VECTOR('VEC1198',#274,1.0E+000);
#276=LINE('STRAIGHT1198',#273,#275);
#277=EDGE_CURVE('EDGE3711',#192,#272,#276,.T.);
#278=ORIENTED_EDGE('COEDGE7417',*,*,#277,.T.);
#279=CARTESIAN_POINT('POS2979',(3.2512E+000,3.98144017754731E-016,
   1.99072008877366E-016));
#280=DIRECTION('DIR4759',(-1.0E+000,0.0E+000,-6.12303176911189E-017));
#281=DIRECTION('DIR4760',(6.12303176911189E-017,0.0E+000,-1.0E+000));
#282=AXIS2_PLACEMENT_3D('AXIS1781',#279,#280,#281);
#283=CIRCLE('ELLIPSE926',#282,2.413E+000);
#284=EDGE_CURVE('EDGE3712',#263,#272,#283,.T.);
#285=ORIENTED_EDGE('COEDGE7418',*,*,#284,.F.);
#286=EDGE_LOOP('NONE',(#269,#270,#278,#285));
#287=FACE_BOUND('LOOP1',#286,.T.);
#288=CARTESIAN_POINT('POS2980',(3.03657E+000,3.71860291582642E-016,
   1.85930145791321E-016));
#289=DIRECTION('DIR4761',(1.0E+000,1.22460635382238E-016,
   6.12303176911189E-017));
#290=DIRECTION('DIR4762',(-6.12303176911189E-017,1.01474749655682E-019,
   1.0E+000));
#291=AXIS2_PLACEMENT_3D('AXIS1782',#288,#289,#290);
#292=CONICAL_SURFACE('CONE_SURF390',#291,2.19837E+000,
   7.85398163397448E-001);
#293=ADVANCED_FACE('FACE1563',(#287),#292,.F.);
#294=ORIENTED_EDGE('COEDGE7419',*,*,#268,.F.);
#295=EDGE_CURVE('EDGE3713',#272,#263,#283,.T.);
#296=ORIENTED_EDGE('COEDGE7420',*,*,#295,.F.);
#297=ORIENTED_EDGE('COEDGE7421',*,*,#277,.F.);
#298=ORIENTED_EDGE('COEDGE7422',*,*,#215,.T.);
#299=EDGE_LOOP('NONE',(#294,#296,#297,#298));
#300=FACE_BOUND('LOOP1',#299,.T.);
#301=ADVANCED_FACE('FACE1564',(#300),#292,.F.);
#302=ORIENTED_EDGE('COEDGE7423',*,*,#257,.T.);
#303=ORIENTED_EDGE('COEDGE7424',*,*,#237,.T.);
#304=EDGE_LOOP('NONE',(#302,#303));
#305=FACE_BOUND('LOOP1',#304,.T.);
#306=CARTESIAN_POINT('POINT2328',(9.65199999999999E-001,
   -5.90995026354679E-017,4.318E+000));
#307=VERTEX_POINT('VERTEX2328',#306);
#308=CARTESIAN_POINT('POINT2329',(9.65200000000001E-001,
   3.92907446424119E-015,-4.318E+000));
#309=VERTEX_POINT('VERTEX2329',#308);
#310=CARTESIAN_POINT('POS2981',(9.652E-001,0.0E+000,
   1.77298507906404E-016));
#311=DIRECTION('DIR4763',(1.0E+000,0.0E+000,1.83690953073357E-016));
#312=DIRECTION('DIR4764',(-1.83690953073357E-016,-1.03238987675352E-015,
   1.0E+000));
#313=AXIS2_PLACEMENT_3D('AXIS1783',#310,#311,#312);
#314=CIRCLE('ELLIPSE927',#313,4.318E+000);
#315=EDGE_CURVE('EDGE3714',#307,#309,#314,.T.);
#316=ORIENTED_EDGE('COEDGE7425',*,*,#315,.F.);
#317=EDGE_CURVE('EDGE3715',#309,#307,#314,.T.);
#318=ORIENTED_EDGE('COEDGE7426',*,*,#317,.F.);
#319=EDGE_LOOP('NONE',(#316,#318));
#320=FACE_BOUND('LOOP1',#319,.T.);
#321=CARTESIAN_POINT('POS2982',(9.652E-001,-5.90995026354679E-017,
   2.159E+000));
#322=DIRECTION('DIR4765',(-1.0E+000,0.0E+000,-1.83690953073357E-016));
#323=DIRECTION('DIR4766',(0.0E+000,1.0E+000,0.0E+000));
#324=AXIS2_PLACEMENT_3D('AXIS1784',#321,#322,#323);
#325=PLANE('PLANE404',#324);
#326=ADVANCED_FACE('FACE1565',(#305,#320),#325,.T.);
#327=CARTESIAN_POINT('POINT2330',(2.8702E+000,-1.75743257837049E-016,
   4.318E+000));
#328=VERTEX_POINT('VERTEX2330',#327);
#329=CARTESIAN_POINT('POS2983',(1.9177E+000,-3.92907446424119E-015,
   4.318E+000));
#330=DIRECTION('DIR4767',(1.0E+000,0.0E+000,1.83690953073357E-016));
#331=VECTOR('VEC1199',#330,1.0E+000);
#332=LINE('STRAIGHT1199',#329,#331);
#333=EDGE_CURVE('EDGE3716',#307,#328,#332,.T.);
#334=ORIENTED_EDGE('COEDGE7427',*,*,#333,.T.);
#335=CARTESIAN_POINT('POINT2331',(2.8702E+000,3.92907446424119E-015,
   -4.318E+000));
#336=VERTEX_POINT('VERTEX2331',#335);
#337=CARTESIAN_POINT('POS2984',(2.8702E+000,0.0E+000,
   5.27229773511148E-016));
#338=DIRECTION('DIR4768',(1.0E+000,0.0E+000,1.83690953073357E-016));
#339=DIRECTION('DIR4769',(-1.83690953073357E-016,-1.03238987675352E-015,
   1.0E+000));
#340=AXIS2_PLACEMENT_3D('AXIS1785',#337,#338,#339);
#341=CIRCLE('ELLIPSE928',#340,4.318E+000);
#342=EDGE_CURVE('EDGE3717',#336,#328,#341,.T.);
#343=ORIENTED_EDGE('COEDGE7428',*,*,#342,.F.);
#344=CARTESIAN_POINT('POS2985',(1.9177E+000,3.92907446424119E-015,
   -4.318E+000));
#345=DIRECTION('DIR4770',(-1.0E+000,-0.0E+000,-1.83690953073357E-016));
#346=VECTOR('VEC1200',#345,1.0E+000);
#347=LINE('STRAIGHT1200',#344,#346);
#348=EDGE_CURVE('EDGE3718',#336,#309,#347,.T.);
#349=ORIENTED_EDGE('COEDGE7429',*,*,#348,.T.);
#350=ORIENTED_EDGE('COEDGE7430',*,*,#317,.T.);
#351=EDGE_LOOP('NONE',(#334,#343,#349,#350));
#352=FACE_BOUND('LOOP1',#351,.T.);
#353=CARTESIAN_POINT('POS2986',(1.9177E+000,0.0E+000,
   3.52264140708776E-016));
#354=DIRECTION('DIR4771',(1.0E+000,0.0E+000,1.83690953073357E-016));
#355=DIRECTION('DIR4772',(-1.83690953073357E-016,-1.03238987675352E-015,
   1.0E+000));
#356=AXIS2_PLACEMENT_3D('AXIS1786',#353,#354,#355);
#357=CYLINDRICAL_SURFACE('CONE_SURF391',#356,4.318E+000);
#358=ADVANCED_FACE('FACE1566',(#352),#357,.T.);
#359=ORIENTED_EDGE('COEDGE7431',*,*,#295,.T.);
#360=ORIENTED_EDGE('COEDGE7432',*,*,#284,.T.);
#361=EDGE_LOOP('NONE',(#359,#360));
#362=FACE_BOUND('LOOP1',#361,.T.);
#363=CARTESIAN_POINT('POINT2332',(3.2512E+000,-1.99072008877366E-016,
   3.937E+000));
#364=VERTEX_POINT('VERTEX2332',#363);
#365=CARTESIAN_POINT('POINT2333',(3.2512E+000,3.58239142327873E-015,
   -3.937E+000));
#366=VERTEX_POINT('VERTEX2333',#365);
#367=CARTESIAN_POINT('POS2987',(3.2512E+000,0.0E+000,
   5.97216026632097E-016));
#368=DIRECTION('DIR4773',(1.0E+000,2.18952885050753E-047,
   1.83690953073357E-016));
#369=DIRECTION('DIR4774',(-1.83690953073357E-016,-1.03238987675352E-015,
   1.0E+000));
#370=AXIS2_PLACEMENT_3D('AXIS1787',#367,#368,#369);
#371=CIRCLE('ELLIPSE929',#370,3.937E+000);
#372=EDGE_CURVE('EDGE3719',#364,#366,#371,.T.);
#373=ORIENTED_EDGE('COEDGE7433',*,*,#372,.T.);
#374=EDGE_CURVE('EDGE3720',#366,#364,#371,.T.);
#375=ORIENTED_EDGE('COEDGE7434',*,*,#374,.T.);
#376=EDGE_LOOP('NONE',(#373,#375));
#377=FACE_BOUND('LOOP1',#376,.T.);
#378=CARTESIAN_POINT('POS2988',(3.2512E+000,-1.99072008877366E-016,
   1.9685E+000));
#379=DIRECTION('DIR4775',(1.0E+000,0.0E+000,1.83690953073357E-016));
#380=DIRECTION('DIR4776',(0.0E+000,1.0E+000,0.0E+000));
#381=AXIS2_PLACEMENT_3D('AXIS1788',#378,#379,#380);
#382=PLANE('PLANE405',#381);
#383=ADVANCED_FACE('FACE1567',(#362,#377),#382,.T.);
#384=ORIENTED_EDGE('COEDGE7435',*,*,#333,.F.);
#385=ORIENTED_EDGE('COEDGE7436',*,*,#315,.T.);
#386=ORIENTED_EDGE('COEDGE7437',*,*,#348,.F.);
#387=EDGE_CURVE('EDGE3721',#328,#336,#341,.T.);
#388=ORIENTED_EDGE('COEDGE7438',*,*,#387,.F.);
#389=EDGE_LOOP('NONE',(#384,#385,#386,#388));
#390=FACE_BOUND('LOOP1',#389,.T.);
#391=ADVANCED_FACE('FACE1568',(#390),#357,.T.);
#392=CARTESIAN_POINT('POS2989',(3.0607E+000,-3.75573294375996E-015,
   4.1275E+000));
#393=DIRECTION('DIR4777',(7.07106781186548E-001,6.43417136973563E-016,
   -7.07106781186547E-001));
#394=VECTOR('VEC1201',#393,1.0E+000);
#395=LINE('STRAIGHT1201',#392,#394);
#396=EDGE_CURVE('EDGE3722',#328,#364,#395,.T.);
#397=ORIENTED_EDGE('COEDGE7439',*,*,#396,.T.);
#398=ORIENTED_EDGE('COEDGE7440',*,*,#374,.F.);
#399=CARTESIAN_POINT('POS2990',(3.0607E+000,3.75573294375996E-015,
   -4.1275E+000));
#400=DIRECTION('DIR4778',(-7.07106781186548E-001,6.43417136973562E-016,
   -7.07106781186547E-001));
#401=VECTOR('VEC1202',#400,1.0E+000);
#402=LINE('STRAIGHT1202',#399,#401);
#403=EDGE_CURVE('EDGE3723',#366,#336,#402,.T.);
#404=ORIENTED_EDGE('COEDGE7441',*,*,#403,.T.);
#405=ORIENTED_EDGE('COEDGE7442',*,*,#342,.T.);
#406=EDGE_LOOP('NONE',(#397,#398,#404,#405));
#407=FACE_BOUND('LOOP1',#406,.T.);
#408=CARTESIAN_POINT('POS2991',(3.0607E+000,0.0E+000,
   5.62222900071622E-016));
#409=DIRECTION('DIR4779',(-1.0E+000,-2.18952885050753E-047,
   -1.83690953073357E-016));
#410=DIRECTION('DIR4780',(-1.83690953073357E-016,-1.03238987675352E-015,
   1.0E+000));
#411=AXIS2_PLACEMENT_3D('AXIS1789',#408,#409,#410);
#412=CONICAL_SURFACE('CONE_SURF392',#411,4.1275E+000,
   7.85398163397448E-001);
#413=ADVANCED_FACE('FACE1569',(#407),#412,.T.);
#414=ORIENTED_EDGE('COEDGE7443',*,*,#396,.F.);
#415=ORIENTED_EDGE('COEDGE7444',*,*,#387,.T.);
#416=ORIENTED_EDGE('COEDGE7445',*,*,#403,.F.);
#417=ORIENTED_EDGE('COEDGE7446',*,*,#372,.F.);
#418=EDGE_LOOP('NONE',(#414,#415,#416,#417));
#419=FACE_BOUND('LOOP1',#418,.T.);
#420=ADVANCED_FACE('FACE1570',(#419),#412,.T.);
#421=CLOSED_SHELL('SHELL70',(#42,#51,#76,#108,#116,#148,#156,#181,#213,
   #221,#253,#261,#293,#301,#326,#358,#383,#391,#413,#420));
#422=MANIFOLD_SOLID_BREP('LUMP69',#421);
#423=ADVANCED_BREP_SHAPE_REPRESENTATION('BODY21',(#422),#424);
#424=(GEOMETRIC_REPRESENTATION_CONTEXT(3) 
   GLOBAL_UNCERTAINTY_ASSIGNED_CONTEXT((#425)) 
   GLOBAL_UNIT_ASSIGNED_CONTEXT((#426,#427,#428)) REPRESENTATION_CONTEXT
   ('',''));
#425=UNCERTAINTY_MEASURE_WITH_UNIT(LENGTH_MEASURE(1.0E-006),#426,'','');
#426=(LENGTH_UNIT() NAMED_UNIT(*) SI_UNIT(.MILLI.,.METRE.));
#427=(NAMED_UNIT(*) PLANE_ANGLE_UNIT() SI_UNIT($,.RADIAN.));
#428=(NAMED_UNIT(*) SI_UNIT($,.STERADIAN.) SOLID_ANGLE_UNIT());
#429=APPLICATION_CONTEXT(
   'CONFIGURATION CONTROLLED 3D DESIGNS OF MECHANICAL PARTS AND 
ASSEMBLIES');
#430=APPLICATION_PROTOCOL_DEFINITION('INTERNATIONAL STANDARD',
   'config_control_design',1994,#429);
#431=MECHANICAL_CONTEXT('MECHANICAL_CONTEXT_NAME',#429,'mechanical');
#432=PRODUCT('PRODUCT_ID_22','PRODUCT_NAME_22','PRODUCT_DESCRIPTION',(
   #431));
#433=PRODUCT_RELATED_PRODUCT_CATEGORY('detail',
   'PRODUCT_RELATED_PRODUCT_CATEGORY_DESCRIPTION',(#432));
#434=PERSON_AND_ORGANIZATION_ROLE('design_owner');
#435=CC_DESIGN_PERSON_AND_ORGANIZATION_ASSIGNMENT(#438,#434,(#432));
#436=PERSON('ID_169','PERSON_LAST_NAME','PERSON_FIRST_NAME',$,$,$);
#437=ORGANIZATION('ORGANIZATION_ID','ORGANIZATION_NAME',
   'ORGANIZATION_DESCRIPTION');
#438=PERSON_AND_ORGANIZATION(#436,#437);
#439=PRODUCT_DEFINITION_FORMATION_WITH_SPECIFIED_SOURCE(
   'PRODUCT_DEFINITION_FORMATION_ID',
   'PRODUCT_DEFINITION_FORMATION_DESCRIPTION',#432,.NOT_KNOWN.);
#440=PERSON_AND_ORGANIZATION_ROLE('creator');
#441=CC_DESIGN_PERSON_AND_ORGANIZATION_ASSIGNMENT(#444,#440,(#439));
#442=PERSON('ID_170','PERSON_LAST_NAME','PERSON_FIRST_NAME',$,$,$);
#443=ORGANIZATION('ORGANIZATION_ID','ORGANIZATION_NAME',
   'ORGANIZATION_DESCRIPTION');
#444=PERSON_AND_ORGANIZATION(#442,#443);
#445=PERSON_AND_ORGANIZATION_ROLE('part_supplier');
#446=CC_DESIGN_PERSON_AND_ORGANIZATION_ASSIGNMENT(#449,#445,(#439));
#447=PERSON('ID_171','PERSON_LAST_NAME','PERSON_FIRST_NAME',$,$,$);
#448=ORGANIZATION('ORGANIZATION_ID','ORGANIZATION_NAME',
   'ORGANIZATION_DESCRIPTION');
#449=PERSON_AND_ORGANIZATION(#447,#448);
#450=APPROVAL_STATUS('approved');
#451=APPROVAL(#450,'APPROVAL_LEVEL');
#452=CC_DESIGN_APPROVAL(#451,(#439));
#453=APPROVAL_ROLE('APPROVAL_ROLE');
#454=APPROVAL_PERSON_ORGANIZATION(#457,#451,#453);
#455=PERSON('ID_172','PERSON_LAST_NAME','PERSON_FIRST_NAME',$,$,$);
#456=ORGANIZATION('ORGANIZATION_ID','ORGANIZATION_NAME',
   'ORGANIZATION_DESCRIPTION');
#457=PERSON_AND_ORGANIZATION(#455,#456);
#458=APPROVAL_DATE_TIME(#462,#451);
#459=CALENDAR_DATE(1997,1,1);
#460=COORDINATED_UNIVERSAL_TIME_OFFSET(0,0,.AHEAD.);
#461=LOCAL_TIME(0,0,0.0E+000,#460);
#462=DATE_AND_TIME(#459,#461);
#463=SECURITY_CLASSIFICATION_LEVEL('classified');
#464=SECURITY_CLASSIFICATION('SECURITY_CLASSIFICATION_NAME',
   'SECURITY_CLASSIFICATION_PURPOSE',#463);
#465=CC_DESIGN_SECURITY_CLASSIFICATION(#464,(#439));
#466=APPROVAL_STATUS('approved');
#467=APPROVAL(#466,'APPROVAL_LEVEL');
#468=CC_DESIGN_APPROVAL(#467,(#464));
#469=APPROVAL_ROLE('APPROVAL_ROLE');
#470=APPROVAL_PERSON_ORGANIZATION(#473,#467,#469);
#471=PERSON('ID_173','PERSON_LAST_NAME','PERSON_FIRST_NAME',$,$,$);
#472=ORGANIZATION('ORGANIZATION_ID','ORGANIZATION_NAME',
   'ORGANIZATION_DESCRIPTION');
#473=PERSON_AND_ORGANIZATION(#471,#472);
#474=APPROVAL_DATE_TIME(#478,#467);
#475=CALENDAR_DATE(1997,1,1);
#476=COORDINATED_UNIVERSAL_TIME_OFFSET(0,0,.AHEAD.);
#477=LOCAL_TIME(0,0,0.0E+000,#476);
#478=DATE_AND_TIME(#475,#477);
#479=PERSON_AND_ORGANIZATION_ROLE('classification_officer');
#480=CC_DESIGN_PERSON_AND_ORGANIZATION_ASSIGNMENT(#483,#479,(#464));
#481=PERSON('ID_174','PERSON_LAST_NAME','PERSON_FIRST_NAME',$,$,$);
#482=ORGANIZATION('ORGANIZATION_ID','ORGANIZATION_NAME',
   'ORGANIZATION_DESCRIPTION');
#483=PERSON_AND_ORGANIZATION(#481,#482);
#484=DATE_TIME_ROLE('classification_date');
#485=CC_DESIGN_DATE_AND_TIME_ASSIGNMENT(#489,#484,(#464));
#486=CALENDAR_DATE(1997,1,1);
#487=COORDINATED_UNIVERSAL_TIME_OFFSET(0,0,.AHEAD.);
#488=LOCAL_TIME(0,0,0.0E+000,#487);
#489=DATE_AND_TIME(#486,#488);
#490=DESIGN_CONTEXT('DESIGN_CONTEXT_NAME',#429,'design');
#491=PRODUCT_DEFINITION('PRODUCT_DEFINITION_ID',
   'PRODUCT_DEFINITION_DESCRIPTION',#439,#490);
#492=PERSON_AND_ORGANIZATION_ROLE('creator');
#493=CC_DESIGN_PERSON_AND_ORGANIZATION_ASSIGNMENT(#496,#492,(#491));
#494=PERSON('ID_175','PERSON_LAST_NAME','PERSON_FIRST_NAME',$,$,$);
#495=ORGANIZATION('ORGANIZATION_ID','ORGANIZATION_NAME',
   'ORGANIZATION_DESCRIPTION');
#496=PERSON_AND_ORGANIZATION(#494,#495);
#497=DATE_TIME_ROLE('creation_date');
#498=CC_DESIGN_DATE_AND_TIME_ASSIGNMENT(#502,#497,(#491));
#499=CALENDAR_DATE(1997,1,1);
#500=COORDINATED_UNIVERSAL_TIME_OFFSET(0,0,.AHEAD.);
#501=LOCAL_TIME(0,0,0.0E+000,#500);
#502=DATE_AND_TIME(#499,#501);
#503=APPROVAL_STATUS('approved');
#504=APPROVAL(#503,'APPROVAL_LEVEL');
#505=CC_DESIGN_APPROVAL(#504,(#491));
#506=APPROVAL_ROLE('APPROVAL_ROLE');
#507=APPROVAL_PERSON_ORGANIZATION(#510,#504,#506);
#508=PERSON('ID_176','PERSON_LAST_NAME','PERSON_FIRST_NAME',$,$,$);
#509=ORGANIZATION('ORGANIZATION_ID','ORGANIZATION_NAME',
   'ORGANIZATION_DESCRIPTION');
#510=PERSON_AND_ORGANIZATION(#508,#509);
#511=APPROVAL_DATE_TIME(#515,#504);
#512=CALENDAR_DATE(1997,1,1);
#513=COORDINATED_UNIVERSAL_TIME_OFFSET(0,0,.AHEAD.);
#514=LOCAL_TIME(0,0,0.0E+000,#513);
#515=DATE_AND_TIME(#512,#514);
#516=PRODUCT_DEFINITION_SHAPE('PRODUCT_DEFINITION_SHAPE_NAME',
   'PRODUCT_DEFINITION_SHAPE_DESCRIPTION',#491);
#517=SHAPE_DEFINITION_REPRESENTATION(#516,#423);
ENDSEC;
END-ISO-10303-21;
                
                  
               
                   
                    
     
                
