ISO-10303-21;
HEADER;
/****************************************************************
 * Generated by software with PDE/Lib inside                    *
 * PDElib Version v51a, created Thu 01/14/2010                  *
 * ITI Transcendata (http://www.transcendata.com/)              *
 ****************************************************************/
FILE_DESCRIPTION((''),'2;1');
FILE_NAME('S:\\Engineering\\Public\\Projects\\FlatPack 2\\FP2 19in 600 15 INCH DEEP\\Workspace\\111junk\\STANDOFFS\\BLIND\\METRIC\\BSO-M5-12-ZI.stp','2012-07-02T08:23:36',('stlaus'),(''),'Autodesk Inventor 2011','Autodesk Inventor 2011','');
FILE_SCHEMA(('AUTOMOTIVE_DESIGN { 1 0 10303 214 1 1 1 1 }'));
ENDSEC;
DATA;
#5=APPLICATION_CONTEXT('automotive design');
#6=APPLICATION_PROTOCOL_DEFINITION('International Standard','automotive_design',2001,#5);
#7=PRODUCT_CONTEXT('',#5,'mechanical');
#8=PRODUCT('Assembly1','Assembly1',$,(#7));
#9=PRODUCT_RELATED_PRODUCT_CATEGORY('part',$,(#8));
#10=PRODUCT_DEFINITION_FORMATION('',$,#8);
#11=PRODUCT_DEFINITION_CONTEXT('part definition',#5,'design');
#12=PRODUCT_DEFINITION('',$,#10,#11);
#18=(NAMED_UNIT(*)PLANE_ANGLE_UNIT()SI_UNIT($,.RADIAN.));
#19=DIMENSIONAL_EXPONENTS(0.0,0.0,0.0,0.0,0.0,0.0,0.0);
#20=PLANE_ANGLE_MEASURE_WITH_UNIT(PLANE_ANGLE_MEASURE(0.017453292500000),#18);
#24=(CONVERSION_BASED_UNIT('DEGREE',#20)NAMED_UNIT(#19)PLANE_ANGLE_UNIT());
#28=(NAMED_UNIT(*)SI_UNIT($,.STERADIAN.)SOLID_ANGLE_UNIT());
#32=(LENGTH_UNIT()NAMED_UNIT(*)SI_UNIT(.CENTI.,.METRE.));
#33=DIMENSIONAL_EXPONENTS(1.0,0.0,0.0,0.0,0.0,0.0,0.0);
#34=LENGTH_MEASURE_WITH_UNIT(LENGTH_MEASURE(2.540000000000000),#32);
#38=(CONVERSION_BASED_UNIT('INCH',#34)LENGTH_UNIT()NAMED_UNIT(#33));
#40=UNCERTAINTY_MEASURE_WITH_UNIT(LENGTH_MEASURE(0.000393700787402),#38,'DISTANCE_ACCURACY_VALUE','');
#42=(GEOMETRIC_REPRESENTATION_CONTEXT(3)GLOBAL_UNCERTAINTY_ASSIGNED_CONTEXT((#40))GLOBAL_UNIT_ASSIGNED_CONTEXT((#24,#28,#38))REPRESENTATION_CONTEXT('None','None'));
#43=AXIS2_PLACEMENT_3D('',#44,#45,#46);
#44=CARTESIAN_POINT('',(0.0,0.0,0.0));
#45=DIRECTION('',(0.0,0.0,1.0));
#46=DIRECTION('',(1.0,0.0,0.0));
#47=SHAPE_REPRESENTATION('',(#43,#660),#42);
#48=PRODUCT_DEFINITION_SHAPE('','',#12);
#49=SHAPE_DEFINITION_REPRESENTATION(#48,#47);
#50=APPLICATION_CONTEXT('automotive design');
#51=APPLICATION_PROTOCOL_DEFINITION('International Standard','automotive_design',2001,#50);
#52=PRODUCT_CONTEXT('',#50,'mechanical');
#53=PRODUCT('BSO-M5-12 PEM BLIND STANDOFF','BSO-M5-12 PEM BLIND STANDOFF',$,(#52));
#54=PRODUCT_RELATED_PRODUCT_CATEGORY('part',$,(#53));
#55=PRODUCT_DEFINITION_FORMATION('',$,#53);
#56=PRODUCT_DEFINITION_CONTEXT('part definition',#50,'design');
#57=PRODUCT_DEFINITION('',$,#55,#56);
#63=(NAMED_UNIT(*)PLANE_ANGLE_UNIT()SI_UNIT($,.RADIAN.));
#64=DIMENSIONAL_EXPONENTS(0.0,0.0,0.0,0.0,0.0,0.0,0.0);
#65=PLANE_ANGLE_MEASURE_WITH_UNIT(PLANE_ANGLE_MEASURE(0.017453292500000),#63);
#69=(CONVERSION_BASED_UNIT('DEGREE',#65)NAMED_UNIT(#64)PLANE_ANGLE_UNIT());
#73=(NAMED_UNIT(*)SI_UNIT($,.STERADIAN.)SOLID_ANGLE_UNIT());
#77=(LENGTH_UNIT()NAMED_UNIT(*)SI_UNIT(.MILLI.,.METRE.));
#79=UNCERTAINTY_MEASURE_WITH_UNIT(LENGTH_MEASURE(0.010000000000000),#77,'DISTANCE_ACCURACY_VALUE','');
#81=(GEOMETRIC_REPRESENTATION_CONTEXT(3)GLOBAL_UNCERTAINTY_ASSIGNED_CONTEXT((#79))GLOBAL_UNIT_ASSIGNED_CONTEXT((#69,#73,#77))REPRESENTATION_CONTEXT('None','None'));
#82=AXIS2_PLACEMENT_3D('',#83,#84,#85);
#83=CARTESIAN_POINT('',(0.0,0.0,0.0));
#84=DIRECTION('',(0.0,0.0,1.0));
#85=DIRECTION('',(1.0,0.0,0.0));
#86=SHAPE_REPRESENTATION('',(#82),#81);
#87=PRODUCT_DEFINITION_SHAPE('','',#57);
#88=SHAPE_DEFINITION_REPRESENTATION(#87,#86);
#94=(NAMED_UNIT(*)PLANE_ANGLE_UNIT()SI_UNIT($,.RADIAN.));
#95=DIMENSIONAL_EXPONENTS(0.0,0.0,0.0,0.0,0.0,0.0,0.0);
#96=PLANE_ANGLE_MEASURE_WITH_UNIT(PLANE_ANGLE_MEASURE(0.017453292500000),#94);
#100=(CONVERSION_BASED_UNIT('DEGREE',#96)NAMED_UNIT(#95)PLANE_ANGLE_UNIT());
#104=(NAMED_UNIT(*)SI_UNIT($,.STERADIAN.)SOLID_ANGLE_UNIT());
#108=(LENGTH_UNIT()NAMED_UNIT(*)SI_UNIT(.MILLI.,.METRE.));
#110=UNCERTAINTY_MEASURE_WITH_UNIT(LENGTH_MEASURE(0.000001000000000),#108,'DISTANCE_ACCURACY_VALUE','');
#112=(GEOMETRIC_REPRESENTATION_CONTEXT(3)GLOBAL_UNCERTAINTY_ASSIGNED_CONTEXT((#110))GLOBAL_UNIT_ASSIGNED_CONTEXT((#100,#104,#108))REPRESENTATION_CONTEXT('','3D'));
#113=CARTESIAN_POINT('',(0.0,0.0,11.900000000000002));
#114=DIRECTION('',(0.0,0.0,1.0));
#115=DIRECTION('',(-1.0,0.0,0.0));
#116=AXIS2_PLACEMENT_3D('',#113,#114,#115);
#117=CONICAL_SURFACE('',#116,2.600000000000000,45.000000000000007);
#118=CARTESIAN_POINT('',(2.500000000000000,-3.061516E-016,11.800000000000001));
#119=VERTEX_POINT('',#118);
#120=CARTESIAN_POINT('',(0.0,0.0,11.800000000000001));
#121=DIRECTION('',(0.0,0.0,-1.0));
#122=DIRECTION('',(-1.0,0.0,0.0));
#123=AXIS2_PLACEMENT_3D('',#120,#121,#122);
#124=CIRCLE('',#123,2.500000000000000);
#125=EDGE_CURVE('',#119,#119,#124,.T.);
#126=ORIENTED_EDGE('',*,*,#125,.T.);
#127=EDGE_LOOP('',(#126));
#128=FACE_OUTER_BOUND('',#127,.T.);
#129=CARTESIAN_POINT('',(2.700000000000000,3.306437E-016,12.000000000000002));
#130=VERTEX_POINT('',#129);
#131=CARTESIAN_POINT('',(0.0,0.0,12.000000000000002));
#132=DIRECTION('',(0.0,0.0,1.0));
#133=DIRECTION('',(-1.0,0.0,0.0));
#134=AXIS2_PLACEMENT_3D('',#131,#132,#133);
#135=CIRCLE('',#134,2.700000000000000);
#136=EDGE_CURVE('',#130,#130,#135,.T.);
#137=ORIENTED_EDGE('',*,*,#136,.T.);
#138=EDGE_LOOP('',(#137));
#139=FACE_BOUND('',#138,.T.);
#140=ADVANCED_FACE('',(#128,#139),#117,.F.);
#141=CARTESIAN_POINT('',(0.0,0.0,12.000000000000002));
#142=DIRECTION('',(0.0,0.0,-1.0));
#143=DIRECTION('',(-1.0,0.0,0.0));
#144=AXIS2_PLACEMENT_3D('',#141,#142,#143);
#145=PLANE('',#144);
#146=CARTESIAN_POINT('',(3.480000000000000,-4.261630E-016,12.000000000000002));
#147=VERTEX_POINT('',#146);
#148=CARTESIAN_POINT('',(0.0,0.0,12.000000000000002));
#149=DIRECTION('',(0.0,0.0,-1.0));
#150=DIRECTION('',(-1.0,0.0,0.0));
#151=AXIS2_PLACEMENT_3D('',#148,#149,#150);
#152=CIRCLE('',#151,3.480000000000000);
#153=EDGE_CURVE('',#147,#147,#152,.T.);
#154=ORIENTED_EDGE('',*,*,#153,.F.);
#155=EDGE_LOOP('',(#154));
#156=FACE_OUTER_BOUND('',#155,.T.);
#157=ORIENTED_EDGE('',*,*,#136,.F.);
#158=EDGE_LOOP('',(#157));
#159=FACE_BOUND('',#158,.T.);
#160=ADVANCED_FACE('',(#156,#159),#145,.F.);
#161=CARTESIAN_POINT('',(0.0,0.0,8.230000000000002));
#162=DIRECTION('',(0.0,0.0,1.0));
#163=DIRECTION('',(1.0,0.0,0.0));
#164=AXIS2_PLACEMENT_3D('',#161,#162,#163);
#165=CYLINDRICAL_SURFACE('',#164,2.500000000000000);
#166=CARTESIAN_POINT('',(2.500000000000000,0.0,4.460000000000002));
#167=VERTEX_POINT('',#166);
#168=CARTESIAN_POINT('',(0.0,0.0,4.460000000000002));
#169=DIRECTION('',(0.0,0.0,1.0));
#170=DIRECTION('',(1.0,0.0,0.0));
#171=AXIS2_PLACEMENT_3D('',#168,#169,#170);
#172=CIRCLE('',#171,2.500000000000000);
#173=EDGE_CURVE('',#167,#167,#172,.T.);
#174=ORIENTED_EDGE('',*,*,#173,.F.);
#175=EDGE_LOOP('',(#174));
#176=FACE_OUTER_BOUND('',#175,.T.);
#177=ORIENTED_EDGE('',*,*,#125,.F.);
#178=EDGE_LOOP('',(#177));
#179=FACE_BOUND('',#178,.T.);
#180=ADVANCED_FACE('',(#176,#179),#165,.F.);
#181=CARTESIAN_POINT('',(0.0,0.0,11.960000000000001));
#182=DIRECTION('',(0.0,0.0,-1.0));
#183=DIRECTION('',(-1.0,0.0,0.0));
#184=AXIS2_PLACEMENT_3D('',#181,#182,#183);
#185=CONICAL_SURFACE('',#184,3.520000000000001,44.999999999999993);
#186=ORIENTED_EDGE('',*,*,#153,.T.);
#187=EDGE_LOOP('',(#186));
#188=FACE_OUTER_BOUND('',#187,.T.);
#189=CARTESIAN_POINT('',(3.560000000000001,4.359599E-016,11.920000000000002));
#190=VERTEX_POINT('',#189);
#191=CARTESIAN_POINT('',(0.0,0.0,11.920000000000002));
#192=DIRECTION('',(0.0,0.0,1.0));
#193=DIRECTION('',(-1.0,0.0,0.0));
#194=AXIS2_PLACEMENT_3D('',#191,#192,#193);
#195=CIRCLE('',#194,3.560000000000001);
#196=EDGE_CURVE('',#190,#190,#195,.T.);
#197=ORIENTED_EDGE('',*,*,#196,.T.);
#198=EDGE_LOOP('',(#197));
#199=FACE_BOUND('',#198,.T.);
#200=ADVANCED_FACE('',(#188,#199),#185,.T.);
#201=CARTESIAN_POINT('',(0.0,0.0,0.0));
#202=DIRECTION('',(0.0,0.0,1.0));
#203=DIRECTION('',(-1.0,0.0,0.0));
#204=AXIS2_PLACEMENT_3D('',#201,#202,#203);
#205=CYLINDRICAL_SURFACE('',#204,3.560000000000001);
#206=CARTESIAN_POINT('',(0.0,-3.560000000000001,2.603499999999999));
#207=VERTEX_POINT('',#206);
#208=CARTESIAN_POINT('',(0.0,0.0,2.603499999999999));
#209=DIRECTION('',(0.0,0.0,1.0));
#210=DIRECTION('',(-1.0,0.0,0.0));
#211=AXIS2_PLACEMENT_3D('',#208,#209,#210);
#212=CIRCLE('',#211,3.560000000000001);
#213=EDGE_CURVE('',#207,#207,#212,.T.);
#214=ORIENTED_EDGE('',*,*,#213,.T.);
#215=EDGE_LOOP('',(#214));
#216=FACE_OUTER_BOUND('',#215,.T.);
#217=ORIENTED_EDGE('',*,*,#196,.F.);
#218=EDGE_LOOP('',(#217));
#219=FACE_BOUND('',#218,.T.);
#220=ADVANCED_FACE('',(#216,#219),#205,.T.);
#221=CARTESIAN_POINT('',(0.0,0.0,3.708924226215551));
#222=DIRECTION('',(0.0,0.0,1.0));
#223=DIRECTION('',(1.0,0.0,0.0));
#224=AXIS2_PLACEMENT_3D('',#221,#222,#223);
#225=CONICAL_SURFACE('',#224,1.250000000000000,59.000000000000007);
#226=ORIENTED_EDGE('',*,*,#173,.T.);
#227=EDGE_LOOP('',(#226));
#228=FACE_OUTER_BOUND('',#227,.T.);
#229=ADVANCED_FACE('',(#228),#225,.F.);
#230=CARTESIAN_POINT('',(0.0,0.0,2.476500000000000));
#231=DIRECTION('',(0.0,0.0,-1.0));
#232=DIRECTION('',(0.0,-1.0,0.0));
#233=AXIS2_PLACEMENT_3D('',#230,#231,#232);
#234=CYLINDRICAL_SURFACE('',#233,3.306000000000001);
#235=CARTESIAN_POINT('',(0.0,-3.306000000000001,2.603499999999999));
#236=VERTEX_POINT('',#235);
#237=CARTESIAN_POINT('',(0.0,0.0,2.603499999999999));
#238=DIRECTION('',(0.0,0.0,-1.0));
#239=DIRECTION('',(0.0,-1.0,0.0));
#240=AXIS2_PLACEMENT_3D('',#237,#238,#239);
#241=CIRCLE('',#240,3.306000000000001);
#242=EDGE_CURVE('',#236,#236,#241,.T.);
#243=ORIENTED_EDGE('',*,*,#242,.T.);
#244=EDGE_LOOP('',(#243));
#245=FACE_OUTER_BOUND('',#244,.T.);
#246=CARTESIAN_POINT('',(0.0,-3.306000000000001,2.349500000000000));
#247=VERTEX_POINT('',#246);
#248=CARTESIAN_POINT('',(0.0,0.0,2.349500000000000));
#249=DIRECTION('',(0.0,0.0,-1.0));
#250=DIRECTION('',(0.0,-1.0,0.0));
#251=AXIS2_PLACEMENT_3D('',#248,#249,#250);
#252=CIRCLE('',#251,3.306000000000001);
#253=EDGE_CURVE('',#247,#247,#252,.T.);
#254=ORIENTED_EDGE('',*,*,#253,.F.);
#255=EDGE_LOOP('',(#254));
#256=FACE_BOUND('',#255,.T.);
#257=ADVANCED_FACE('',(#245,#256),#234,.T.);
#258=CARTESIAN_POINT('',(0.0,-3.433000000000001,2.603499999999999));
#259=DIRECTION('',(0.0,0.0,1.0));
#260=DIRECTION('',(1.0,0.0,0.0));
#261=AXIS2_PLACEMENT_3D('',#258,#259,#260);
#262=PLANE('',#261);
#263=ORIENTED_EDGE('',*,*,#213,.F.);
#264=EDGE_LOOP('',(#263));
#265=FACE_OUTER_BOUND('',#264,.T.);
#266=ORIENTED_EDGE('',*,*,#242,.F.);
#267=EDGE_LOOP('',(#266));
#268=FACE_BOUND('',#267,.T.);
#269=ADVANCED_FACE('',(#265,#268),#262,.F.);
#270=CARTESIAN_POINT('',(0.0,-3.433000000000001,2.349500000000000));
#271=DIRECTION('',(0.0,0.0,-1.0));
#272=DIRECTION('',(-1.0,0.0,0.0));
#273=AXIS2_PLACEMENT_3D('',#270,#271,#272);
#274=PLANE('',#273);
#275=CARTESIAN_POINT('',(0.0,-3.560000000000001,2.349500000000000));
#276=VERTEX_POINT('',#275);
#277=CARTESIAN_POINT('',(0.0,0.0,2.349500000000000));
#278=DIRECTION('',(0.0,0.0,-1.0));
#279=DIRECTION('',(-1.0,0.0,0.0));
#280=AXIS2_PLACEMENT_3D('',#277,#278,#279);
#281=CIRCLE('',#280,3.560000000000001);
#282=EDGE_CURVE('',#276,#276,#281,.T.);
#283=ORIENTED_EDGE('',*,*,#282,.F.);
#284=EDGE_LOOP('',(#283));
#285=FACE_OUTER_BOUND('',#284,.T.);
#286=ORIENTED_EDGE('',*,*,#253,.T.);
#287=EDGE_LOOP('',(#286));
#288=FACE_BOUND('',#287,.T.);
#289=ADVANCED_FACE('',(#285,#288),#274,.F.);
#290=CARTESIAN_POINT('',(0.0,0.0,0.0));
#291=DIRECTION('',(0.0,0.0,1.0));
#292=DIRECTION('',(-1.0,0.0,0.0));
#293=AXIS2_PLACEMENT_3D('',#290,#291,#292);
#294=CYLINDRICAL_SURFACE('',#293,3.560000000000001);
#295=CARTESIAN_POINT('',(0.0,-3.560000000000001,2.031999999999999));
#296=VERTEX_POINT('',#295);
#297=CARTESIAN_POINT('',(0.0,0.0,2.031999999999999));
#298=DIRECTION('',(0.0,0.0,1.0));
#299=DIRECTION('',(-1.0,0.0,0.0));
#300=AXIS2_PLACEMENT_3D('',#297,#298,#299);
#301=CIRCLE('',#300,3.560000000000001);
#302=EDGE_CURVE('',#296,#296,#301,.T.);
#303=ORIENTED_EDGE('',*,*,#302,.T.);
#304=EDGE_LOOP('',(#303));
#305=FACE_OUTER_BOUND('',#304,.T.);
#306=ORIENTED_EDGE('',*,*,#282,.T.);
#307=EDGE_LOOP('',(#306));
#308=FACE_BOUND('',#307,.T.);
#309=ADVANCED_FACE('',(#305,#308),#294,.T.);
#310=CARTESIAN_POINT('',(0.0,0.0,1.904999999999999));
#311=DIRECTION('',(0.0,0.0,-1.0));
#312=DIRECTION('',(0.0,-1.0,0.0));
#313=AXIS2_PLACEMENT_3D('',#310,#311,#312);
#314=CYLINDRICAL_SURFACE('',#313,3.306000000000001);
#315=CARTESIAN_POINT('',(0.0,-3.306000000000001,2.031999999999999));
#316=VERTEX_POINT('',#315);
#317=CARTESIAN_POINT('',(0.0,0.0,2.031999999999999));
#318=DIRECTION('',(0.0,0.0,-1.0));
#319=DIRECTION('',(0.0,-1.0,0.0));
#320=AXIS2_PLACEMENT_3D('',#317,#318,#319);
#321=CIRCLE('',#320,3.306000000000001);
#322=EDGE_CURVE('',#316,#316,#321,.T.);
#323=ORIENTED_EDGE('',*,*,#322,.T.);
#324=EDGE_LOOP('',(#323));
#325=FACE_OUTER_BOUND('',#324,.T.);
#326=CARTESIAN_POINT('',(0.0,-3.306000000000001,1.778000000000000));
#327=VERTEX_POINT('',#326);
#328=CARTESIAN_POINT('',(0.0,0.0,1.778000000000000));
#329=DIRECTION('',(0.0,0.0,-1.0));
#330=DIRECTION('',(0.0,-1.0,0.0));
#331=AXIS2_PLACEMENT_3D('',#328,#329,#330);
#332=CIRCLE('',#331,3.306000000000001);
#333=EDGE_CURVE('',#327,#327,#332,.T.);
#334=ORIENTED_EDGE('',*,*,#333,.F.);
#335=EDGE_LOOP('',(#334));
#336=FACE_BOUND('',#335,.T.);
#337=ADVANCED_FACE('',(#325,#336),#314,.T.);
#338=CARTESIAN_POINT('',(0.0,-3.433000000000001,2.031999999999999));
#339=DIRECTION('',(0.0,0.0,1.0));
#340=DIRECTION('',(1.0,0.0,0.0));
#341=AXIS2_PLACEMENT_3D('',#338,#339,#340);
#342=PLANE('',#341);
#343=ORIENTED_EDGE('',*,*,#302,.F.);
#344=EDGE_LOOP('',(#343));
#345=FACE_OUTER_BOUND('',#344,.T.);
#346=ORIENTED_EDGE('',*,*,#322,.F.);
#347=EDGE_LOOP('',(#346));
#348=FACE_BOUND('',#347,.T.);
#349=ADVANCED_FACE('',(#345,#348),#342,.F.);
#350=CARTESIAN_POINT('',(0.0,-3.433000000000001,1.778000000000000));
#351=DIRECTION('',(0.0,0.0,-1.0));
#352=DIRECTION('',(-1.0,0.0,0.0));
#353=AXIS2_PLACEMENT_3D('',#350,#351,#352);
#354=PLANE('',#353);
#355=CARTESIAN_POINT('',(0.0,-3.560000000000001,1.778000000000000));
#356=VERTEX_POINT('',#355);
#357=CARTESIAN_POINT('',(0.0,0.0,1.778000000000000));
#358=DIRECTION('',(0.0,0.0,-1.0));
#359=DIRECTION('',(-1.0,0.0,0.0));
#360=AXIS2_PLACEMENT_3D('',#357,#358,#359);
#361=CIRCLE('',#360,3.560000000000001);
#362=EDGE_CURVE('',#356,#356,#361,.T.);
#363=ORIENTED_EDGE('',*,*,#362,.F.);
#364=EDGE_LOOP('',(#363));
#365=FACE_OUTER_BOUND('',#364,.T.);
#366=ORIENTED_EDGE('',*,*,#333,.T.);
#367=EDGE_LOOP('',(#366));
#368=FACE_BOUND('',#367,.T.);
#369=ADVANCED_FACE('',(#365,#368),#354,.F.);
#370=CARTESIAN_POINT('',(0.0,0.0,0.0));
#371=DIRECTION('',(0.0,0.0,1.0));
#372=DIRECTION('',(-1.0,0.0,0.0));
#373=AXIS2_PLACEMENT_3D('',#370,#371,#372);
#374=CYLINDRICAL_SURFACE('',#373,3.560000000000001);
#375=CARTESIAN_POINT('',(0.0,-3.560000000000001,1.397000000000000));
#376=VERTEX_POINT('',#375);
#377=CARTESIAN_POINT('',(0.0,0.0,1.397000000000000));
#378=DIRECTION('',(0.0,0.0,1.0));
#379=DIRECTION('',(-1.0,0.0,0.0));
#380=AXIS2_PLACEMENT_3D('',#377,#378,#379);
#381=CIRCLE('',#380,3.560000000000001);
#382=EDGE_CURVE('',#376,#376,#381,.T.);
#383=ORIENTED_EDGE('',*,*,#382,.T.);
#384=EDGE_LOOP('',(#383));
#385=FACE_OUTER_BOUND('',#384,.T.);
#386=ORIENTED_EDGE('',*,*,#362,.T.);
#387=EDGE_LOOP('',(#386));
#388=FACE_BOUND('',#387,.T.);
#389=ADVANCED_FACE('',(#385,#388),#374,.T.);
#390=CARTESIAN_POINT('',(0.0,0.0,1.016000000000000));
#391=DIRECTION('',(0.0,0.0,-1.0));
#392=DIRECTION('',(0.0,-1.0,0.0));
#393=AXIS2_PLACEMENT_3D('',#390,#391,#392);
#394=CYLINDRICAL_SURFACE('',#393,3.052000000000001);
#395=CARTESIAN_POINT('',(0.0,-3.052000000000001,1.397000000000000));
#396=VERTEX_POINT('',#395);
#397=CARTESIAN_POINT('',(0.0,0.0,1.397000000000000));
#398=DIRECTION('',(0.0,0.0,-1.0));
#399=DIRECTION('',(0.0,-1.0,0.0));
#400=AXIS2_PLACEMENT_3D('',#397,#398,#399);
#401=CIRCLE('',#400,3.052000000000001);
#402=EDGE_CURVE('',#396,#396,#401,.T.);
#403=ORIENTED_EDGE('',*,*,#402,.T.);
#404=EDGE_LOOP('',(#403));
#405=FACE_OUTER_BOUND('',#404,.T.);
#406=CARTESIAN_POINT('',(0.0,-3.052000000000001,0.635000000000000));
#407=VERTEX_POINT('',#406);
#408=CARTESIAN_POINT('',(0.0,0.0,0.635000000000000));
#409=DIRECTION('',(0.0,0.0,-1.0));
#410=DIRECTION('',(0.0,-1.0,0.0));
#411=AXIS2_PLACEMENT_3D('',#408,#409,#410);
#412=CIRCLE('',#411,3.052000000000001);
#413=EDGE_CURVE('',#407,#407,#412,.T.);
#414=ORIENTED_EDGE('',*,*,#413,.F.);
#415=EDGE_LOOP('',(#414));
#416=FACE_BOUND('',#415,.T.);
#417=ADVANCED_FACE('',(#405,#416),#394,.T.);
#418=CARTESIAN_POINT('',(0.0,-3.306000000000001,1.397000000000000));
#419=DIRECTION('',(0.0,0.0,1.0));
#420=DIRECTION('',(1.0,0.0,0.0));
#421=AXIS2_PLACEMENT_3D('',#418,#419,#420);
#422=PLANE('',#421);
#423=ORIENTED_EDGE('',*,*,#382,.F.);
#424=EDGE_LOOP('',(#423));
#425=FACE_OUTER_BOUND('',#424,.T.);
#426=ORIENTED_EDGE('',*,*,#402,.F.);
#427=EDGE_LOOP('',(#426));
#428=FACE_BOUND('',#427,.T.);
#429=ADVANCED_FACE('',(#425,#428),#422,.F.);
#430=CARTESIAN_POINT('',(-1.133353E-015,2.498002E-015,0.635000000000000));
#431=DIRECTION('',(0.0,0.0,1.0));
#432=DIRECTION('',(1.0,0.0,0.0));
#433=AXIS2_PLACEMENT_3D('',#430,#431,#432);
#434=PLANE('',#433);
#435=CARTESIAN_POINT('',(-2.280533563299026,3.950000000000001,0.635000000000000));
#436=VERTEX_POINT('',#435);
#437=CARTESIAN_POINT('',(2.280533563299021,3.950000000000002,0.635000000000000));
#438=VERTEX_POINT('',#437);
#439=CARTESIAN_POINT('',(-2.280533563299026,3.950000000000001,0.635000000000000));
#440=DIRECTION('',(1.0,0.0,0.0));
#441=VECTOR('',#440,4.561067126598047);
#442=LINE('',#439,#441);
#443=EDGE_CURVE('',#436,#438,#442,.T.);
#444=ORIENTED_EDGE('',*,*,#443,.F.);
#445=CARTESIAN_POINT('',(-4.561067126598045,-1.586046E-016,0.635000000000000));
#446=VERTEX_POINT('',#445);
#447=CARTESIAN_POINT('',(-4.561067126598045,-8.881784E-016,0.635000000000000));
#448=DIRECTION('',(0.499999999999999,0.866025403784439,0.0));
#449=VECTOR('',#448,4.561067126598045);
#450=LINE('',#447,#449);
#451=EDGE_CURVE('',#446,#436,#450,.T.);
#452=ORIENTED_EDGE('',*,*,#451,.F.);
#453=CARTESIAN_POINT('',(-2.280533563299021,-3.949999999999998,0.635000000000000));
#454=VERTEX_POINT('',#453);
#455=CARTESIAN_POINT('',(-2.280533563299021,-3.949999999999999,0.635000000000000));
#456=DIRECTION('',(-0.500000000000001,0.866025403784438,0.0));
#457=VECTOR('',#456,4.561067126598044);
#458=LINE('',#455,#457);
#459=EDGE_CURVE('',#454,#446,#458,.T.);
#460=ORIENTED_EDGE('',*,*,#459,.F.);
#461=CARTESIAN_POINT('',(2.280533563299021,-3.949999999999998,0.635000000000000));
#462=VERTEX_POINT('',#461);
#463=CARTESIAN_POINT('',(2.280533563299022,-3.949999999999998,0.635000000000000));
#464=DIRECTION('',(-1.0,0.0,0.0));
#465=VECTOR('',#464,4.561067126598043);
#466=LINE('',#463,#465);
#467=EDGE_CURVE('',#462,#454,#466,.T.);
#468=ORIENTED_EDGE('',*,*,#467,.F.);
#469=CARTESIAN_POINT('',(4.561067126598043,2.705757E-015,0.635000000000000));
#470=VERTEX_POINT('',#469);
#471=CARTESIAN_POINT('',(4.561067126598043,2.664535E-015,0.635000000000000));
#472=DIRECTION('',(-0.500000000000000,-0.866025403784439,0.0));
#473=VECTOR('',#472,4.561067126598044);
#474=LINE('',#471,#473);
#475=EDGE_CURVE('',#470,#462,#474,.T.);
#476=ORIENTED_EDGE('',*,*,#475,.F.);
#477=CARTESIAN_POINT('',(2.280533563299021,3.950000000000002,0.635000000000000));
#478=DIRECTION('',(0.500000000000000,-0.866025403784439,0.0));
#479=VECTOR('',#478,4.561067126598043);
#480=LINE('',#477,#479);
#481=EDGE_CURVE('',#438,#470,#480,.T.);
#482=ORIENTED_EDGE('',*,*,#481,.F.);
#483=EDGE_LOOP('',(#444,#452,#460,#468,#476,#482));
#484=FACE_OUTER_BOUND('',#483,.T.);
#485=ORIENTED_EDGE('',*,*,#413,.T.);
#486=EDGE_LOOP('',(#485));
#487=FACE_BOUND('',#486,.T.);
#488=ADVANCED_FACE('',(#484,#487),#434,.T.);
#489=CARTESIAN_POINT('',(-2.280533563299026,3.950000000000001,0.0));
#490=DIRECTION('',(0.0,1.0,0.0));
#491=DIRECTION('',(0.0,0.0,1.0));
#492=AXIS2_PLACEMENT_3D('',#489,#490,#491);
#493=PLANE('',#492);
#494=ORIENTED_EDGE('',*,*,#443,.T.);
#495=CARTESIAN_POINT('',(2.280533563299021,3.950000000000002,0.0));
#496=VERTEX_POINT('',#495);
#497=CARTESIAN_POINT('',(2.280533563299021,3.950000000000002,0.0));
#498=DIRECTION('',(0.0,0.0,1.0));
#499=VECTOR('',#498,0.635000000000000);
#500=LINE('',#497,#499);
#501=EDGE_CURVE('',#496,#438,#500,.T.);
#502=ORIENTED_EDGE('',*,*,#501,.F.);
#503=CARTESIAN_POINT('',(-2.280533563299026,3.950000000000001,0.0));
#504=VERTEX_POINT('',#503);
#505=CARTESIAN_POINT('',(2.280533563299021,3.950000000000002,0.0));
#506=DIRECTION('',(-1.0,0.0,0.0));
#507=VECTOR('',#506,4.561067126598047);
#508=LINE('',#505,#507);
#509=EDGE_CURVE('',#496,#504,#508,.T.);
#510=ORIENTED_EDGE('',*,*,#509,.T.);
#511=CARTESIAN_POINT('',(-2.280533563299026,3.950000000000001,0.0));
#512=DIRECTION('',(0.0,0.0,1.0));
#513=VECTOR('',#512,0.635000000000000);
#514=LINE('',#511,#513);
#515=EDGE_CURVE('',#504,#436,#514,.T.);
#516=ORIENTED_EDGE('',*,*,#515,.T.);
#517=EDGE_LOOP('',(#494,#502,#510,#516));
#518=FACE_OUTER_BOUND('',#517,.T.);
#519=ADVANCED_FACE('',(#518),#493,.T.);
#520=CARTESIAN_POINT('',(2.280533563299021,3.950000000000002,0.0));
#521=DIRECTION('',(0.866025403784439,0.500000000000000,0.0));
#522=DIRECTION('',(0.0,0.0,-1.0));
#523=AXIS2_PLACEMENT_3D('',#520,#521,#522);
#524=PLANE('',#523);
#525=ORIENTED_EDGE('',*,*,#481,.T.);
#526=CARTESIAN_POINT('',(4.561067126598043,2.705757E-015,0.0));
#527=VERTEX_POINT('',#526);
#528=CARTESIAN_POINT('',(4.561067126598043,2.705757E-015,0.0));
#529=DIRECTION('',(0.0,0.0,1.0));
#530=VECTOR('',#529,0.635000000000000);
#531=LINE('',#528,#530);
#532=EDGE_CURVE('',#527,#470,#531,.T.);
#533=ORIENTED_EDGE('',*,*,#532,.F.);
#534=CARTESIAN_POINT('',(4.561067126598043,2.705757E-015,0.0));
#535=DIRECTION('',(-0.500000000000000,0.866025403784439,0.0));
#536=VECTOR('',#535,4.561067126598043);
#537=LINE('',#534,#536);
#538=EDGE_CURVE('',#527,#496,#537,.T.);
#539=ORIENTED_EDGE('',*,*,#538,.T.);
#540=ORIENTED_EDGE('',*,*,#501,.T.);
#541=EDGE_LOOP('',(#525,#533,#539,#540));
#542=FACE_OUTER_BOUND('',#541,.T.);
#543=ADVANCED_FACE('',(#542),#524,.T.);
#544=CARTESIAN_POINT('',(4.561067126598043,2.705757E-015,0.0));
#545=DIRECTION('',(0.866025403784439,-0.500000000000000,0.0));
#546=DIRECTION('',(0.0,0.0,-1.0));
#547=AXIS2_PLACEMENT_3D('',#544,#545,#546);
#548=PLANE('',#547);
#549=ORIENTED_EDGE('',*,*,#475,.T.);
#550=CARTESIAN_POINT('',(2.280533563299021,-3.949999999999998,0.0));
#551=VERTEX_POINT('',#550);
#552=CARTESIAN_POINT('',(2.280533563299021,-3.949999999999998,0.0));
#553=DIRECTION('',(0.0,0.0,1.0));
#554=VECTOR('',#553,0.635000000000000);
#555=LINE('',#552,#554);
#556=EDGE_CURVE('',#551,#462,#555,.T.);
#557=ORIENTED_EDGE('',*,*,#556,.F.);
#558=CARTESIAN_POINT('',(2.280533563299021,-3.949999999999998,0.0));
#559=DIRECTION('',(0.500000000000000,0.866025403784439,0.0));
#560=VECTOR('',#559,4.561067126598044);
#561=LINE('',#558,#560);
#562=EDGE_CURVE('',#551,#527,#561,.T.);
#563=ORIENTED_EDGE('',*,*,#562,.T.);
#564=ORIENTED_EDGE('',*,*,#532,.T.);
#565=EDGE_LOOP('',(#549,#557,#563,#564));
#566=FACE_OUTER_BOUND('',#565,.T.);
#567=ADVANCED_FACE('',(#566),#548,.T.);
#568=CARTESIAN_POINT('',(2.280533563299021,-3.949999999999998,0.0));
#569=DIRECTION('',(0.0,-1.0,0.0));
#570=DIRECTION('',(0.0,0.0,-1.0));
#571=AXIS2_PLACEMENT_3D('',#568,#569,#570);
#572=PLANE('',#571);
#573=ORIENTED_EDGE('',*,*,#467,.T.);
#574=CARTESIAN_POINT('',(-2.280533563299021,-3.949999999999998,0.0));
#575=VERTEX_POINT('',#574);
#576=CARTESIAN_POINT('',(-2.280533563299021,-3.949999999999998,0.0));
#577=DIRECTION('',(0.0,0.0,1.0));
#578=VECTOR('',#577,0.635000000000000);
#579=LINE('',#576,#578);
#580=EDGE_CURVE('',#575,#454,#579,.T.);
#581=ORIENTED_EDGE('',*,*,#580,.F.);
#582=CARTESIAN_POINT('',(-2.280533563299021,-3.949999999999998,0.0));
#583=DIRECTION('',(1.0,0.0,0.0));
#584=VECTOR('',#583,4.561067126598043);
#585=LINE('',#582,#584);
#586=EDGE_CURVE('',#575,#551,#585,.T.);
#587=ORIENTED_EDGE('',*,*,#586,.T.);
#588=ORIENTED_EDGE('',*,*,#556,.T.);
#589=EDGE_LOOP('',(#573,#581,#587,#588));
#590=FACE_OUTER_BOUND('',#589,.T.);
#591=ADVANCED_FACE('',(#590),#572,.T.);
#592=CARTESIAN_POINT('',(-2.280533563299021,-3.949999999999998,0.0));
#593=DIRECTION('',(-0.866025403784438,-0.500000000000001,0.0));
#594=DIRECTION('',(0.0,0.0,1.0));
#595=AXIS2_PLACEMENT_3D('',#592,#593,#594);
#596=PLANE('',#595);
#597=ORIENTED_EDGE('',*,*,#459,.T.);
#598=CARTESIAN_POINT('',(-4.561067126598045,-1.586046E-016,0.0));
#599=VERTEX_POINT('',#598);
#600=CARTESIAN_POINT('',(-4.561067126598045,-1.586046E-016,0.0));
#601=DIRECTION('',(0.0,0.0,1.0));
#602=VECTOR('',#601,0.635000000000000);
#603=LINE('',#600,#602);
#604=EDGE_CURVE('',#599,#446,#603,.T.);
#605=ORIENTED_EDGE('',*,*,#604,.F.);
#606=CARTESIAN_POINT('',(-4.561067126598045,-1.586046E-016,0.0));
#607=DIRECTION('',(0.500000000000001,-0.866025403784438,0.0));
#608=VECTOR('',#607,4.561067126598044);
#609=LINE('',#606,#608);
#610=EDGE_CURVE('',#599,#575,#609,.T.);
#611=ORIENTED_EDGE('',*,*,#610,.T.);
#612=ORIENTED_EDGE('',*,*,#580,.T.);
#613=EDGE_LOOP('',(#597,#605,#611,#612));
#614=FACE_OUTER_BOUND('',#613,.T.);
#615=ADVANCED_FACE('',(#614),#596,.T.);
#616=CARTESIAN_POINT('',(-4.561067126598045,-1.586046E-016,0.0));
#617=DIRECTION('',(-0.866025403784439,0.500000000000000,0.0));
#618=DIRECTION('',(0.0,0.0,1.0));
#619=AXIS2_PLACEMENT_3D('',#616,#617,#618);
#620=PLANE('',#619);
#621=ORIENTED_EDGE('',*,*,#451,.T.);
#622=ORIENTED_EDGE('',*,*,#515,.F.);
#623=CARTESIAN_POINT('',(-2.280533563299026,3.950000000000001,0.0));
#624=DIRECTION('',(-0.499999999999999,-0.866025403784439,0.0));
#625=VECTOR('',#624,4.561067126598045);
#626=LINE('',#623,#625);
#627=EDGE_CURVE('',#504,#599,#626,.T.);
#628=ORIENTED_EDGE('',*,*,#627,.T.);
#629=ORIENTED_EDGE('',*,*,#604,.T.);
#630=EDGE_LOOP('',(#621,#622,#628,#629));
#631=FACE_OUTER_BOUND('',#630,.T.);
#632=ADVANCED_FACE('',(#631),#620,.T.);
#633=CARTESIAN_POINT('',(0.0,0.0,0.0));
#634=DIRECTION('',(0.0,0.0,-1.0));
#635=DIRECTION('',(-1.0,0.0,0.0));
#636=AXIS2_PLACEMENT_3D('',#633,#634,#635);
#637=PLANE('',#636);
#638=ORIENTED_EDGE('',*,*,#627,.F.);
#639=ORIENTED_EDGE('',*,*,#509,.F.);
#640=ORIENTED_EDGE('',*,*,#538,.F.);
#641=ORIENTED_EDGE('',*,*,#562,.F.);
#642=ORIENTED_EDGE('',*,*,#586,.F.);
#643=ORIENTED_EDGE('',*,*,#610,.F.);
#644=EDGE_LOOP('',(#638,#639,#640,#641,#642,#643));
#645=FACE_OUTER_BOUND('',#644,.T.);
#646=ADVANCED_FACE('',(#645),#637,.T.);
#647=CLOSED_SHELL('',(#140,#160,#180,#200,#220,#229,#257,#269,#289,#309,#337,#349,#369,#389,#417,#429,#488,#519,#543,#567,#591,#615,#632,#646));
#648=MANIFOLD_SOLID_BREP('Solid1',#647);
#649=DRAUGHTING_PRE_DEFINED_COLOUR('white');
#650=FILL_AREA_STYLE_COLOUR('Chrome',#649);
#651=FILL_AREA_STYLE('Chrome',(#650));
#652=SURFACE_STYLE_FILL_AREA(#651);
#653=SURFACE_SIDE_STYLE('Chrome',(#652));
#654=SURFACE_STYLE_USAGE(.BOTH.,#653);
#655=PRESENTATION_STYLE_ASSIGNMENT((#654));
#656=STYLED_ITEM('',(#655),#648);
#657=MECHANICAL_DESIGN_GEOMETRIC_PRESENTATION_REPRESENTATION('',(#656),#42);
#658=ADVANCED_BREP_SHAPE_REPRESENTATION('ABSR',(#648),#81);
#659=SHAPE_REPRESENTATION_RELATIONSHIP('SRR','None',#658,#86);
#660=AXIS2_PLACEMENT_3D('',#661,#662,#663);
#661=CARTESIAN_POINT('',(0.0,0.0,0.0));
#662=DIRECTION('',(0.0,0.0,1.0));
#663=DIRECTION('',(1.0,0.0,0.0));
#664=NEXT_ASSEMBLY_USAGE_OCCURRENCE('BSO-M5-12 PEM BLIND STANDOFF:1','BSO-M5-12 PEM BLIND STANDOFF:1','BSO-M5-12 PEM BLIND STANDOFF:1',#12,#57,'BSO-M5-12 PEM BLIND STANDOFF:1');
#665=PRODUCT_DEFINITION_SHAPE('BSO-M5-12 PEM BLIND STANDOFF:1','BSO-M5-12 PEM BLIND STANDOFF:1',#664);
#666=ITEM_DEFINED_TRANSFORMATION('BSO-M5-12 PEM BLIND STANDOFF:1','BSO-M5-12 PEM BLIND STANDOFF:1',#82,#660);
#670=(REPRESENTATION_RELATIONSHIP('BSO-M5-12 PEM BLIND STANDOFF:1','BSO-M5-12 PEM BLIND STANDOFF:1',#86,#47)REPRESENTATION_RELATIONSHIP_WITH_TRANSFORMATION(#666)SHAPE_REPRESENTATION_RELATIONSHIP());
#671=CONTEXT_DEPENDENT_SHAPE_REPRESENTATION(#670,#665);
ENDSEC;
END-ISO-10303-21;
