ISO-10303-21;
HEADER;
/****************************************************************
 * Generated by software with PDE/Lib inside                    *
 * PDElib Version v51a, created Thu 01/14/2010                  *
 * ITI Transcendata (http://www.transcendata.com/)              *
 ****************************************************************/
FILE_DESCRIPTION((''),'2;1');
FILE_NAME('S:\\Engineering\\Public\\Projects\\FlatPack 2\\FP2 19in 600 15 INCH DEEP\\Workspace\\CAD LIBRARY\\PEM\\STUDS\\METRIC\\FH-M3-6-ZI.stp','2012-07-03T07:44:46',('stlaus'),(''),'Autodesk Inventor 2011','Autodesk Inventor 2011','');
FILE_SCHEMA(('AUTOMOTIVE_DESIGN { 1 0 10303 214 1 1 1 1 }'));
ENDSEC;
DATA;
#5=APPLICATION_CONTEXT('automotive design');
#6=APPLICATION_PROTOCOL_DEFINITION('International Standard','automotive_design',2001,#5);
#7=PRODUCT_CONTEXT('',#5,'mechanical');
#8=PRODUCT('Assembly1','Assembly1',$,(#7));
#9=PRODUCT_RELATED_PRODUCT_CATEGORY('part',$,(#8));
#10=PRODUCT_DEFINITION_FORMATION('',$,#8);
#11=PRODUCT_DEFINITION_CONTEXT('part definition',#5,'design');
#12=PRODUCT_DEFINITION('',$,#10,#11);
#18=(NAMED_UNIT(*)PLANE_ANGLE_UNIT()SI_UNIT($,.RADIAN.));
#19=DIMENSIONAL_EXPONENTS(0.0,0.0,0.0,0.0,0.0,0.0,0.0);
#20=PLANE_ANGLE_MEASURE_WITH_UNIT(PLANE_ANGLE_MEASURE(0.017453292500000),#18);
#24=(CONVERSION_BASED_UNIT('DEGREE',#20)NAMED_UNIT(#19)PLANE_ANGLE_UNIT());
#28=(NAMED_UNIT(*)SI_UNIT($,.STERADIAN.)SOLID_ANGLE_UNIT());
#32=(LENGTH_UNIT()NAMED_UNIT(*)SI_UNIT(.CENTI.,.METRE.));
#33=DIMENSIONAL_EXPONENTS(1.0,0.0,0.0,0.0,0.0,0.0,0.0);
#34=LENGTH_MEASURE_WITH_UNIT(LENGTH_MEASURE(2.540000000000000),#32);
#38=(CONVERSION_BASED_UNIT('INCH',#34)LENGTH_UNIT()NAMED_UNIT(#33));
#40=UNCERTAINTY_MEASURE_WITH_UNIT(LENGTH_MEASURE(0.000393700787402),#38,'DISTANCE_ACCURACY_VALUE','');
#42=(GEOMETRIC_REPRESENTATION_CONTEXT(3)GLOBAL_UNCERTAINTY_ASSIGNED_CONTEXT((#40))GLOBAL_UNIT_ASSIGNED_CONTEXT((#24,#28,#38))REPRESENTATION_CONTEXT('None','None'));
#43=AXIS2_PLACEMENT_3D('',#44,#45,#46);
#44=CARTESIAN_POINT('',(0.0,0.0,0.0));
#45=DIRECTION('',(0.0,0.0,1.0));
#46=DIRECTION('',(1.0,0.0,0.0));
#47=SHAPE_REPRESENTATION('',(#43,#232),#42);
#48=PRODUCT_DEFINITION_SHAPE('','',#12);
#49=SHAPE_DEFINITION_REPRESENTATION(#48,#47);
#50=APPLICATION_CONTEXT('automotive design');
#51=APPLICATION_PROTOCOL_DEFINITION('International Standard','automotive_design',2001,#50);
#52=PRODUCT_CONTEXT('',#50,'mechanical');
#53=PRODUCT('FH-M3-6-ZI PEM Stud','FH-M3-6-ZI PEM Stud',$,(#52));
#54=PRODUCT_RELATED_PRODUCT_CATEGORY('part',$,(#53));
#55=PRODUCT_DEFINITION_FORMATION('',$,#53);
#56=PRODUCT_DEFINITION_CONTEXT('part definition',#50,'design');
#57=PRODUCT_DEFINITION('',$,#55,#56);
#63=(NAMED_UNIT(*)PLANE_ANGLE_UNIT()SI_UNIT($,.RADIAN.));
#64=DIMENSIONAL_EXPONENTS(0.0,0.0,0.0,0.0,0.0,0.0,0.0);
#65=PLANE_ANGLE_MEASURE_WITH_UNIT(PLANE_ANGLE_MEASURE(0.017453292500000),#63);
#69=(CONVERSION_BASED_UNIT('DEGREE',#65)NAMED_UNIT(#64)PLANE_ANGLE_UNIT());
#73=(NAMED_UNIT(*)SI_UNIT($,.STERADIAN.)SOLID_ANGLE_UNIT());
#77=(LENGTH_UNIT()NAMED_UNIT(*)SI_UNIT(.MILLI.,.METRE.));
#79=UNCERTAINTY_MEASURE_WITH_UNIT(LENGTH_MEASURE(0.010000000000000),#77,'DISTANCE_ACCURACY_VALUE','');
#81=(GEOMETRIC_REPRESENTATION_CONTEXT(3)GLOBAL_UNCERTAINTY_ASSIGNED_CONTEXT((#79))GLOBAL_UNIT_ASSIGNED_CONTEXT((#69,#73,#77))REPRESENTATION_CONTEXT('None','None'));
#82=AXIS2_PLACEMENT_3D('',#83,#84,#85);
#83=CARTESIAN_POINT('',(0.0,0.0,0.0));
#84=DIRECTION('',(0.0,0.0,1.0));
#85=DIRECTION('',(1.0,0.0,0.0));
#86=SHAPE_REPRESENTATION('',(#82),#81);
#87=PRODUCT_DEFINITION_SHAPE('','',#57);
#88=SHAPE_DEFINITION_REPRESENTATION(#87,#86);
#94=(NAMED_UNIT(*)PLANE_ANGLE_UNIT()SI_UNIT($,.RADIAN.));
#95=DIMENSIONAL_EXPONENTS(0.0,0.0,0.0,0.0,0.0,0.0,0.0);
#96=PLANE_ANGLE_MEASURE_WITH_UNIT(PLANE_ANGLE_MEASURE(0.017453292500000),#94);
#100=(CONVERSION_BASED_UNIT('DEGREE',#96)NAMED_UNIT(#95)PLANE_ANGLE_UNIT());
#104=(NAMED_UNIT(*)SI_UNIT($,.STERADIAN.)SOLID_ANGLE_UNIT());
#108=(LENGTH_UNIT()NAMED_UNIT(*)SI_UNIT(.MILLI.,.METRE.));
#110=UNCERTAINTY_MEASURE_WITH_UNIT(LENGTH_MEASURE(0.000001000000000),#108,'DISTANCE_ACCURACY_VALUE','');
#112=(GEOMETRIC_REPRESENTATION_CONTEXT(3)GLOBAL_UNCERTAINTY_ASSIGNED_CONTEXT((#110))GLOBAL_UNIT_ASSIGNED_CONTEXT((#100,#104,#108))REPRESENTATION_CONTEXT('','3D'));
#113=CARTESIAN_POINT('',(0.0,0.0,5.925000000000001));
#114=DIRECTION('',(0.0,0.0,-1.0));
#115=DIRECTION('',(-1.0,0.0,0.0));
#116=AXIS2_PLACEMENT_3D('',#113,#114,#115);
#117=CONICAL_SURFACE('',#116,1.425000000000000,45.000000000000007);
#118=CARTESIAN_POINT('',(1.350000000000000,-1.653219E-016,6.000000000000001));
#119=VERTEX_POINT('',#118);
#120=CARTESIAN_POINT('',(0.0,0.0,6.000000000000001));
#121=DIRECTION('',(0.0,0.0,-1.0));
#122=DIRECTION('',(-1.0,0.0,0.0));
#123=AXIS2_PLACEMENT_3D('',#120,#121,#122);
#124=CIRCLE('',#123,1.350000000000000);
#125=EDGE_CURVE('',#119,#119,#124,.T.);
#126=ORIENTED_EDGE('',*,*,#125,.T.);
#127=EDGE_LOOP('',(#126));
#128=FACE_OUTER_BOUND('',#127,.T.);
#129=CARTESIAN_POINT('',(1.500000000000000,1.836910E-016,5.850000000000001));
#130=VERTEX_POINT('',#129);
#131=CARTESIAN_POINT('',(0.0,0.0,5.850000000000001));
#132=DIRECTION('',(0.0,0.0,1.0));
#133=DIRECTION('',(-1.0,0.0,0.0));
#134=AXIS2_PLACEMENT_3D('',#131,#132,#133);
#135=CIRCLE('',#134,1.500000000000000);
#136=EDGE_CURVE('',#130,#130,#135,.T.);
#137=ORIENTED_EDGE('',*,*,#136,.T.);
#138=EDGE_LOOP('',(#137));
#139=FACE_BOUND('',#138,.T.);
#140=ADVANCED_FACE('',(#128,#139),#117,.T.);
#141=CARTESIAN_POINT('',(0.0,0.0,0.0));
#142=DIRECTION('',(0.0,0.0,1.0));
#143=DIRECTION('',(-1.0,0.0,0.0));
#144=AXIS2_PLACEMENT_3D('',#141,#142,#143);
#145=CYLINDRICAL_SURFACE('',#144,1.500000000000000);
#146=CARTESIAN_POINT('',(1.500000000000000,1.836910E-016,0.220000000000000));
#147=VERTEX_POINT('',#146);
#148=CARTESIAN_POINT('',(0.0,0.0,0.220000000000000));
#149=DIRECTION('',(0.0,0.0,1.0));
#150=DIRECTION('',(-1.0,0.0,0.0));
#151=AXIS2_PLACEMENT_3D('',#148,#149,#150);
#152=CIRCLE('',#151,1.500000000000000);
#153=EDGE_CURVE('',#147,#147,#152,.T.);
#154=ORIENTED_EDGE('',*,*,#153,.T.);
#155=EDGE_LOOP('',(#154));
#156=FACE_OUTER_BOUND('',#155,.T.);
#157=ORIENTED_EDGE('',*,*,#136,.F.);
#158=EDGE_LOOP('',(#157));
#159=FACE_BOUND('',#158,.T.);
#160=ADVANCED_FACE('',(#156,#159),#145,.T.);
#161=CARTESIAN_POINT('',(0.0,0.0,6.000000000000001));
#162=DIRECTION('',(0.0,0.0,-1.0));
#163=DIRECTION('',(-1.0,0.0,0.0));
#164=AXIS2_PLACEMENT_3D('',#161,#162,#163);
#165=PLANE('',#164);
#166=ORIENTED_EDGE('',*,*,#125,.F.);
#167=EDGE_LOOP('',(#166));
#168=FACE_OUTER_BOUND('',#167,.T.);
#169=ADVANCED_FACE('',(#168),#165,.F.);
#170=CARTESIAN_POINT('',(0.0,0.0,0.0));
#171=DIRECTION('',(0.0,0.0,1.0));
#172=DIRECTION('',(-1.0,0.0,0.0));
#173=AXIS2_PLACEMENT_3D('',#170,#171,#172);
#174=CYLINDRICAL_SURFACE('',#173,2.300000000000000);
#175=CARTESIAN_POINT('',(2.300000000000000,2.816595E-016,0.220000000000000));
#176=VERTEX_POINT('',#175);
#177=CARTESIAN_POINT('',(0.0,0.0,0.220000000000000));
#178=DIRECTION('',(0.0,0.0,-1.0));
#179=DIRECTION('',(-1.0,0.0,0.0));
#180=AXIS2_PLACEMENT_3D('',#177,#178,#179);
#181=CIRCLE('',#180,2.300000000000000);
#182=EDGE_CURVE('',#176,#176,#181,.T.);
#183=ORIENTED_EDGE('',*,*,#182,.T.);
#184=EDGE_LOOP('',(#183));
#185=FACE_OUTER_BOUND('',#184,.T.);
#186=CARTESIAN_POINT('',(2.300000000000000,2.816595E-016,0.0));
#187=VERTEX_POINT('',#186);
#188=CARTESIAN_POINT('',(0.0,0.0,0.0));
#189=DIRECTION('',(0.0,0.0,-1.0));
#190=DIRECTION('',(-1.0,0.0,0.0));
#191=AXIS2_PLACEMENT_3D('',#188,#189,#190);
#192=CIRCLE('',#191,2.300000000000000);
#193=EDGE_CURVE('',#187,#187,#192,.T.);
#194=ORIENTED_EDGE('',*,*,#193,.F.);
#195=EDGE_LOOP('',(#194));
#196=FACE_BOUND('',#195,.T.);
#197=ADVANCED_FACE('',(#185,#196),#174,.T.);
#198=CARTESIAN_POINT('',(0.0,0.0,0.220000000000000));
#199=DIRECTION('',(0.0,0.0,-1.0));
#200=DIRECTION('',(-1.0,0.0,0.0));
#201=AXIS2_PLACEMENT_3D('',#198,#199,#200);
#202=PLANE('',#201);
#203=ORIENTED_EDGE('',*,*,#182,.F.);
#204=EDGE_LOOP('',(#203));
#205=FACE_OUTER_BOUND('',#204,.T.);
#206=ORIENTED_EDGE('',*,*,#153,.F.);
#207=EDGE_LOOP('',(#206));
#208=FACE_BOUND('',#207,.T.);
#209=ADVANCED_FACE('',(#205,#208),#202,.F.);
#210=CARTESIAN_POINT('',(0.0,0.0,0.0));
#211=DIRECTION('',(0.0,0.0,-1.0));
#212=DIRECTION('',(-1.0,0.0,0.0));
#213=AXIS2_PLACEMENT_3D('',#210,#211,#212);
#214=PLANE('',#213);
#215=ORIENTED_EDGE('',*,*,#193,.T.);
#216=EDGE_LOOP('',(#215));
#217=FACE_OUTER_BOUND('',#216,.T.);
#218=ADVANCED_FACE('',(#217),#214,.T.);
#219=CLOSED_SHELL('',(#140,#160,#169,#197,#209,#218));
#220=MANIFOLD_SOLID_BREP('Solid1',#219);
#221=DRAUGHTING_PRE_DEFINED_COLOUR('white');
#222=FILL_AREA_STYLE_COLOUR('Chrome',#221);
#223=FILL_AREA_STYLE('Chrome',(#222));
#224=SURFACE_STYLE_FILL_AREA(#223);
#225=SURFACE_SIDE_STYLE('Chrome',(#224));
#226=SURFACE_STYLE_USAGE(.BOTH.,#225);
#227=PRESENTATION_STYLE_ASSIGNMENT((#226));
#228=STYLED_ITEM('',(#227),#220);
#229=MECHANICAL_DESIGN_GEOMETRIC_PRESENTATION_REPRESENTATION('',(#228),#42);
#230=ADVANCED_BREP_SHAPE_REPRESENTATION('ABSR',(#220),#81);
#231=SHAPE_REPRESENTATION_RELATIONSHIP('SRR','None',#230,#86);
#232=AXIS2_PLACEMENT_3D('',#233,#234,#235);
#233=CARTESIAN_POINT('',(0.0,0.0,0.0));
#234=DIRECTION('',(0.0,0.0,1.0));
#235=DIRECTION('',(1.0,0.0,0.0));
#236=NEXT_ASSEMBLY_USAGE_OCCURRENCE('FH-M3-6-ZI PEM Stud:1','FH-M3-6-ZI PEM Stud:1','FH-M3-6-ZI PEM Stud:1',#12,#57,'FH-M3-6-ZI PEM Stud:1');
#237=PRODUCT_DEFINITION_SHAPE('FH-M3-6-ZI PEM Stud:1','FH-M3-6-ZI PEM Stud:1',#236);
#238=ITEM_DEFINED_TRANSFORMATION('FH-M3-6-ZI PEM Stud:1','FH-M3-6-ZI PEM Stud:1',#82,#232);
#242=(REPRESENTATION_RELATIONSHIP('FH-M3-6-ZI PEM Stud:1','FH-M3-6-ZI PEM Stud:1',#86,#47)REPRESENTATION_RELATIONSHIP_WITH_TRANSFORMATION(#238)SHAPE_REPRESENTATION_RELATIONSHIP());
#243=CONTEXT_DEPENDENT_SHAPE_REPRESENTATION(#242,#237);
ENDSEC;
END-ISO-10303-21;
