ISO-10303-21;
HEADER;
FILE_DESCRIPTION(('starvars output'),'2;1');
FILE_NAME('cv20120701153922000000939.stp','15:39:22   2012/07/01',(
   'Thomas Industrial Network Germany GmbH'),(
   'Thomas Industrial Network Germany GmbH'),'unknown preprocess','ACIS'
   ,'unknown authorization');
FILE_SCHEMA(('CONFIG_CONTROL_DESIGN {UNKNOWN IMPLEMENTATION LEVEL}'));
ENDSEC;
/* ISO 10303-21 file written by STEP Caselib, ProSTEP GmbH, Germany */
DATA;
#1=CARTESIAN_POINT('POINT1509',(-4.94569522054705E-016,0.0E+000,
   2.6924E+000));
#2=VERTEX_POINT('VERTEX1509',#1);
#3=CARTESIAN_POINT('POINT1510',(1.75846153846153E-001,
   -1.07671158647614E-017,2.6924E+000));
#4=VERTEX_POINT('VERTEX1510',#3);
#5=CARTESIAN_POINT('POS2181',(8.79230769230764E-002,
   -6.70539694363469E-016,2.6924E+000));
#6=DIRECTION('DIR3408',(1.0E+000,0.0E+000,1.83690953073357E-016));
#7=VECTOR('VEC954',#6,1.0E+000);
#8=LINE('STRAIGHT954',#5,#7);
#9=EDGE_CURVE('EDGE2372',#2,#4,#8,.T.);
#10=ORIENTED_EDGE('COEDGE4743',*,*,#9,.F.);
#11=CARTESIAN_POINT('POINT1511',(4.94569522054705E-016,
   6.70539694363469E-016,-2.6924E+000));
#12=VERTEX_POINT('VERTEX1511',#11);
#13=CARTESIAN_POINT('POS2182',(0.0E+000,0.0E+000,0.0E+000));
#14=DIRECTION('DIR3409',(1.0E+000,0.0E+000,1.83690953073357E-016));
#15=DIRECTION('DIR3410',(-1.83690953073357E-016,-3.71509697320831E-016,
   1.0E+000));
#16=AXIS2_PLACEMENT_3D('AXIS1228',#13,#14,#15);
#17=CIRCLE('ELLIPSE586',#16,2.6924E+000);
#18=EDGE_CURVE('EDGE2373',#2,#12,#17,.T.);
#19=ORIENTED_EDGE('COEDGE4744',*,*,#18,.T.);
#20=CARTESIAN_POINT('POINT1512',(1.75846153846154E-001,
   6.7053969436347E-016,-2.6924E+000));
#21=VERTEX_POINT('VERTEX1512',#20);
#22=CARTESIAN_POINT('POS2183',(8.79230769230774E-002,
   6.70539694363469E-016,-2.6924E+000));
#23=DIRECTION('DIR3411',(-1.0E+000,-0.0E+000,-1.83690953073357E-016));
#24=VECTOR('VEC955',#23,1.0E+000);
#25=LINE('STRAIGHT955',#22,#24);
#26=EDGE_CURVE('EDGE2374',#21,#12,#25,.T.);
#27=ORIENTED_EDGE('COEDGE4745',*,*,#26,.F.);
#28=CARTESIAN_POINT('POS2184',(1.75846153846154E-001,0.0E+000,
   3.23013475942841E-017));
#29=DIRECTION('DIR3412',(1.0E+000,0.0E+000,1.83690953073357E-016));
#30=DIRECTION('DIR3413',(-1.83690953073357E-016,-3.71509697320831E-016,
   1.0E+000));
#31=AXIS2_PLACEMENT_3D('AXIS1229',#28,#29,#30);
#32=CIRCLE('ELLIPSE587',#31,2.6924E+000);
#33=EDGE_CURVE('EDGE2375',#4,#21,#32,.T.);
#34=ORIENTED_EDGE('COEDGE4746',*,*,#33,.F.);
#35=EDGE_LOOP('NONE',(#10,#19,#27,#34));
#36=FACE_BOUND('LOOP1',#35,.T.);
#37=CARTESIAN_POINT('POS2185',(8.79230769230769E-002,0.0E+000,
   1.6150673797142E-017));
#38=DIRECTION('DIR3414',(1.0E+000,0.0E+000,1.83690953073357E-016));
#39=DIRECTION('DIR3415',(-1.83690953073357E-016,-3.71509697320831E-016,
   1.0E+000));
#40=AXIS2_PLACEMENT_3D('AXIS1230',#37,#38,#39);
#41=CYLINDRICAL_SURFACE('CONE_SURF265',#40,2.6924E+000);
#42=ADVANCED_FACE('FACE1039',(#36),#41,.T.);
#43=ORIENTED_EDGE('COEDGE4747',*,*,#9,.T.);
#44=EDGE_CURVE('EDGE2376',#21,#4,#32,.T.);
#45=ORIENTED_EDGE('COEDGE4748',*,*,#44,.F.);
#46=ORIENTED_EDGE('COEDGE4749',*,*,#26,.T.);
#47=EDGE_CURVE('EDGE2377',#12,#2,#17,.T.);
#48=ORIENTED_EDGE('COEDGE4750',*,*,#47,.T.);
#49=EDGE_LOOP('NONE',(#43,#45,#46,#48));
#50=FACE_BOUND('LOOP1',#49,.T.);
#51=ADVANCED_FACE('FACE1040',(#50),#41,.T.);
#52=CARTESIAN_POINT('POINT1513',(1.27530505687062E-016,0.0E+000,
   -2.0828E+000));
#53=VERTEX_POINT('VERTEX1513',#52);
#54=CARTESIAN_POINT('POINT1514',(-5.49124970754961E-016,
   -2.54831456463888E-016,2.0828E+000));
#55=VERTEX_POINT('VERTEX1514',#54);
#56=CARTESIAN_POINT('POS2186',(-1.76247905159244E-016,
   -3.91348964699486E-032,-1.95674482349743E-032));
#57=DIRECTION('DIR3416',(1.0E+000,0.0E+000,6.12303176911189E-017));
#58=DIRECTION('DIR3417',(6.12303176911189E-017,0.0E+000,-1.0E+000));
#59=AXIS2_PLACEMENT_3D('AXIS1231',#56,#57,#58);
#60=CIRCLE('ELLIPSE588',#59,2.0828E+000);
#61=EDGE_CURVE('EDGE2378',#53,#55,#60,.T.);
#62=ORIENTED_EDGE('COEDGE4751',*,*,#61,.T.);
#63=EDGE_CURVE('EDGE2379',#55,#53,#60,.T.);
#64=ORIENTED_EDGE('COEDGE4752',*,*,#63,.T.);
#65=EDGE_LOOP('NONE',(#62,#64));
#66=FACE_BOUND('LOOP1',#65,.T.);
#67=ORIENTED_EDGE('COEDGE4753',*,*,#18,.F.);
#68=ORIENTED_EDGE('COEDGE4754',*,*,#47,.F.);
#69=EDGE_LOOP('NONE',(#67,#68));
#70=FACE_BOUND('LOOP1',#69,.T.);
#71=CARTESIAN_POINT('POS2187',(-2.47284761027353E-016,0.0E+000,
   1.3462E+000));
#72=DIRECTION('DIR3418',(-1.0E+000,0.0E+000,-1.83690953073357E-016));
#73=DIRECTION('DIR3419',(0.0E+000,1.0E+000,0.0E+000));
#74=AXIS2_PLACEMENT_3D('AXIS1232',#71,#72,#73);
#75=PLANE('PLANE355',#74);
#76=ADVANCED_FACE('FACE1041',(#66,#70),#75,.T.);
#77=CARTESIAN_POINT('POINT1515',(3.81E-001,-6.59364032790745E-016,
   2.64752666666667E+000));
#78=VERTEX_POINT('VERTEX1515',#77);
#79=CARTESIAN_POINT('POS2188',(4.68923076923076E-001,
   -6.54574463545292E-016,2.62829523809524E+000));
#80=DIRECTION('DIR3420',(9.76904063629181E-001,5.32164003201379E-017,
   -2.13678380901748E-001));
#81=VECTOR('VEC956',#80,1.0E+000);
#82=LINE('STRAIGHT956',#79,#81);
#83=EDGE_CURVE('EDGE2380',#4,#78,#82,.T.);
#84=ORIENTED_EDGE('COEDGE4755',*,*,#83,.F.);
#85=ORIENTED_EDGE('COEDGE4756',*,*,#33,.T.);
#86=CARTESIAN_POINT('POINT1516',(3.81E-001,1.30779962837358E-015,
   -2.64752666666667E+000));
#87=VERTEX_POINT('VERTEX1516',#86);
#88=CARTESIAN_POINT('POS2189',(4.68923076923077E-001,
   6.54574463545292E-016,-2.62829523809524E+000));
#89=DIRECTION('DIR3421',(-9.76904063629181E-001,5.32164003201379E-017,
   -2.13678380901748E-001));
#90=VECTOR('VEC957',#89,1.0E+000);
#91=LINE('STRAIGHT957',#88,#90);
#92=EDGE_CURVE('EDGE2381',#87,#21,#91,.T.);
#93=ORIENTED_EDGE('COEDGE4757',*,*,#92,.F.);
#94=CARTESIAN_POINT('POS2190',(3.81E-001,0.0E+000,6.99862531209489E-017)
   );
#95=DIRECTION('DIR3422',(1.0E+000,7.04885336635741E-035,
   1.83690953073357E-016));
#96=DIRECTION('DIR3423',(-1.83690953073357E-016,-3.71509697320831E-016,
   1.0E+000));
#97=AXIS2_PLACEMENT_3D('AXIS1233',#94,#95,#96);
#98=CIRCLE('ELLIPSE589',#97,2.64752666666667E+000);
#99=EDGE_CURVE('EDGE2382',#78,#87,#98,.T.);
#100=ORIENTED_EDGE('COEDGE4758',*,*,#99,.F.);
#101=EDGE_LOOP('NONE',(#84,#85,#93,#100));
#102=FACE_BOUND('LOOP1',#101,.T.);
#103=CARTESIAN_POINT('POS2191',(4.68923076923077E-001,0.0E+000,
   8.61369269180909E-017));
#104=DIRECTION('DIR3424',(-1.0E+000,0.0E+000,-1.83690953073357E-016));
#105=DIRECTION('DIR3425',(-1.83690953073357E-016,-3.71509697320831E-016,
   1.0E+000));
#106=AXIS2_PLACEMENT_3D('AXIS1234',#103,#104,#105);
#107=CONICAL_SURFACE('CONE_SURF266',#106,2.62829523809524E+000,
   2.1533876442796E-001);
#108=ADVANCED_FACE('FACE1042',(#102),#107,.T.);
#109=ORIENTED_EDGE('COEDGE4759',*,*,#83,.T.);
#110=EDGE_CURVE('EDGE2383',#87,#78,#98,.T.);
#111=ORIENTED_EDGE('COEDGE4760',*,*,#110,.F.);
#112=ORIENTED_EDGE('COEDGE4761',*,*,#92,.T.);
#113=ORIENTED_EDGE('COEDGE4762',*,*,#44,.T.);
#114=EDGE_LOOP('NONE',(#109,#111,#112,#113));
#115=FACE_BOUND('LOOP1',#114,.T.);
#116=ADVANCED_FACE('FACE1043',(#115),#107,.T.);
#117=CARTESIAN_POINT('POINT1517',(4.2926E-001,7.8851178516269E-017,
   1.65354E+000));
#118=VERTEX_POINT('VERTEX1517',#117);
#119=CARTESIAN_POINT('POS2192',(2.1463E-001,-2.02287659473264E-016,
   1.86817E+000));
#120=DIRECTION('DIR3426',(-7.07106781186548E-001,-1.73107557943251E-016,
   7.07106781186548E-001));
#121=VECTOR('VEC958',#120,1.0E+000);
#122=LINE('STRAIGHT958',#119,#121);
#123=EDGE_CURVE('EDGE2384',#118,#55,#122,.T.);
#124=ORIENTED_EDGE('COEDGE4763',*,*,#123,.T.);
#125=ORIENTED_EDGE('COEDGE4764',*,*,#61,.F.);
#126=CARTESIAN_POINT('POINT1518',(4.2926E-001,2.54878767170998E-016,
   -1.65354E+000));
#127=VERTEX_POINT('VERTEX1518',#126);
#128=CARTESIAN_POINT('POS2193',(2.1463E-001,2.54855111817443E-016,
   -1.86817E+000));
#129=DIRECTION('DIR3427',(7.07106781186548E-001,7.79334711365048E-020,
   7.07106781186548E-001));
#130=VECTOR('VEC959',#129,1.0E+000);
#131=LINE('STRAIGHT959',#128,#130);
#132=EDGE_CURVE('EDGE2385',#53,#127,#131,.T.);
#133=ORIENTED_EDGE('COEDGE4765',*,*,#132,.T.);
#134=CARTESIAN_POINT('POS2194',(4.2926E-001,5.25674523441794E-017,
   2.62837261720897E-017));
#135=DIRECTION('DIR3428',(-1.0E+000,-1.22460635382238E-016,
   -6.12303176911189E-017));
#136=DIRECTION('DIR3429',(-6.12303176911189E-017,1.10214571844014E-019,
   1.0E+000));
#137=AXIS2_PLACEMENT_3D('AXIS1235',#134,#135,#136);
#138=CIRCLE('ELLIPSE590',#137,1.65354E+000);
#139=EDGE_CURVE('EDGE2386',#118,#127,#138,.T.);
#140=ORIENTED_EDGE('COEDGE4766',*,*,#139,.F.);
#141=EDGE_LOOP('NONE',(#124,#125,#133,#140));
#142=FACE_BOUND('LOOP1',#141,.T.);
#143=CARTESIAN_POINT('POS2195',(2.1463E-001,2.62837261720897E-017,
   1.31418630860448E-017));
#144=DIRECTION('DIR3430',(-1.0E+000,-1.22460635382238E-016,
   -6.12303176911189E-017));
#145=DIRECTION('DIR3431',(-6.12303176911189E-017,1.10214571844014E-019,
   1.0E+000));
#146=AXIS2_PLACEMENT_3D('AXIS1236',#143,#144,#145);
#147=CONICAL_SURFACE('CONE_SURF267',#146,1.86817E+000,
   7.85398163397448E-001);
#148=ADVANCED_FACE('FACE1044',(#142),#147,.F.);
#149=ORIENTED_EDGE('COEDGE4767',*,*,#123,.F.);
#150=EDGE_CURVE('EDGE2387',#127,#118,#138,.T.);
#151=ORIENTED_EDGE('COEDGE4768',*,*,#150,.F.);
#152=ORIENTED_EDGE('COEDGE4769',*,*,#132,.F.);
#153=ORIENTED_EDGE('COEDGE4770',*,*,#63,.F.);
#154=EDGE_LOOP('NONE',(#149,#151,#152,#153));
#155=FACE_BOUND('LOOP1',#154,.T.);
#156=ADVANCED_FACE('FACE1045',(#155),#147,.F.);
#157=ORIENTED_EDGE('COEDGE4771',*,*,#110,.T.);
#158=ORIENTED_EDGE('COEDGE4772',*,*,#99,.T.);
#159=EDGE_LOOP('NONE',(#157,#158));
#160=FACE_BOUND('LOOP1',#159,.T.);
#161=CARTESIAN_POINT('POINT1519',(3.80999999999999E-001,0.0E+000,
   3.3147E+000));
#162=VERTEX_POINT('VERTEX1519',#161);
#163=CARTESIAN_POINT('POINT1520',(3.81000000000001E-001,
   4.05920268101503E-016,-3.3147E+000));
#164=VERTEX_POINT('VERTEX1520',#163);
#165=CARTESIAN_POINT('POS2196',(3.81E-001,0.0E+000,
   -7.00585423007993E-017));
#166=DIRECTION('DIR3432',(-1.0E+000,0.0E+000,-1.83880688453542E-016));
#167=DIRECTION('DIR3433',(-1.83880688453542E-016,0.0E+000,1.0E+000));
#168=AXIS2_PLACEMENT_3D('AXIS1237',#165,#166,#167);
#169=CIRCLE('ELLIPSE591',#168,3.3147E+000);
#170=EDGE_CURVE('EDGE2388',#162,#164,#169,.T.);
#171=ORIENTED_EDGE('COEDGE4773',*,*,#170,.T.);
#172=EDGE_CURVE('EDGE2389',#164,#162,#169,.T.);
#173=ORIENTED_EDGE('COEDGE4774',*,*,#172,.T.);
#174=EDGE_LOOP('NONE',(#171,#173));
#175=FACE_BOUND('LOOP1',#174,.T.);
#176=CARTESIAN_POINT('POS2197',(3.81E-001,0.0E+000,
   -7.00585423007993E-017));
#177=DIRECTION('DIR3434',(-1.0E+000,0.0E+000,-1.83880688453542E-016));
#178=DIRECTION('DIR3435',(0.0E+000,1.0E+000,0.0E+000));
#179=AXIS2_PLACEMENT_3D('AXIS1238',#176,#177,#178);
#180=PLANE('PLANE356',#179);
#181=ADVANCED_FACE('FACE1046',(#160,#175),#180,.T.);
#182=CARTESIAN_POINT('POINT1521',(2.61874E+000,4.81038846451322E-016,
   1.65354E+000));
#183=VERTEX_POINT('VERTEX1521',#182);
#184=CARTESIAN_POINT('POS2198',(1.524E+000,-1.56813065042882E-017,
   1.65354E+000));
#185=DIRECTION('DIR3436',(-1.0E+000,-1.22460635382238E-016,
   -6.12303176911189E-017));
#186=VECTOR('VEC960',#185,1.0E+000);
#187=LINE('STRAIGHT960',#184,#186);
#188=EDGE_CURVE('EDGE2390',#183,#118,#187,.T.);
#189=ORIENTED_EDGE('COEDGE4775',*,*,#188,.T.);
#190=ORIENTED_EDGE('COEDGE4776',*,*,#139,.T.);
#191=CARTESIAN_POINT('POINT1522',(2.61874E+000,5.230038791277E-016,
   -1.65354E+000));
#192=VERTEX_POINT('VERTEX1522',#191);
#193=CARTESIAN_POINT('POS2199',(1.524E+000,3.88941323149349E-016,
   -1.65354E+000));
#194=DIRECTION('DIR3437',(1.0E+000,1.22460635382238E-016,
   6.12303176911189E-017));
#195=VECTOR('VEC961',#194,1.0E+000);
#196=LINE('STRAIGHT961',#193,#195);
#197=EDGE_CURVE('EDGE2391',#127,#192,#196,.T.);
#198=ORIENTED_EDGE('COEDGE4777',*,*,#197,.T.);
#199=CARTESIAN_POINT('POS2200',(2.61874E+000,3.20692564300881E-016,
   1.60346282150441E-016));
#200=DIRECTION('DIR3438',(-1.0E+000,-1.22460635382238E-016,
   -6.12303176911189E-017));
#201=DIRECTION('DIR3439',(-6.12303176911189E-017,1.10214571844014E-019,
   1.0E+000));
#202=AXIS2_PLACEMENT_3D('AXIS1239',#199,#200,#201);
#203=CIRCLE('ELLIPSE592',#202,1.65354E+000);
#204=EDGE_CURVE('EDGE2392',#183,#192,#203,.T.);
#205=ORIENTED_EDGE('COEDGE4778',*,*,#204,.F.);
#206=EDGE_LOOP('NONE',(#189,#190,#198,#205));
#207=FACE_BOUND('LOOP1',#206,.T.);
#208=CARTESIAN_POINT('POS2201',(1.524E+000,1.8663000832253E-016,
   9.33150041612651E-017));
#209=DIRECTION('DIR3440',(-1.0E+000,-1.22460635382238E-016,
   -6.12303176911189E-017));
#210=DIRECTION('DIR3441',(-6.12303176911189E-017,1.10214571844014E-019,
   1.0E+000));
#211=AXIS2_PLACEMENT_3D('AXIS1240',#208,#209,#210);
#212=CYLINDRICAL_SURFACE('CONE_SURF268',#211,1.65354E+000);
#213=ADVANCED_FACE('FACE1047',(#207),#212,.F.);
#214=ORIENTED_EDGE('COEDGE4779',*,*,#188,.F.);
#215=EDGE_CURVE('EDGE2393',#192,#183,#203,.T.);
#216=ORIENTED_EDGE('COEDGE4780',*,*,#215,.F.);
#217=ORIENTED_EDGE('COEDGE4781',*,*,#197,.F.);
#218=ORIENTED_EDGE('COEDGE4782',*,*,#150,.T.);
#219=EDGE_LOOP('NONE',(#214,#216,#217,#218));
#220=FACE_BOUND('LOOP1',#219,.T.);
#221=ADVANCED_FACE('FACE1048',(#220),#212,.F.);
#222=CARTESIAN_POINT('POINT1523',(7.61999999999999E-001,0.0E+000,
   3.3147E+000));
#223=VERTEX_POINT('VERTEX1523',#222);
#224=CARTESIAN_POINT('POS2202',(5.71499999999999E-001,
   -4.05920268101503E-016,3.3147E+000));
#225=DIRECTION('DIR3442',(-1.0E+000,0.0E+000,-1.83880688453542E-016));
#226=VECTOR('VEC962',#225,1.0E+000);
#227=LINE('STRAIGHT962',#224,#226);
#228=EDGE_CURVE('EDGE2394',#223,#162,#227,.T.);
#229=ORIENTED_EDGE('COEDGE4783',*,*,#228,.F.);
#230=CARTESIAN_POINT('POINT1524',(7.62000000000001E-001,
   4.05920268101503E-016,-3.3147E+000));
#231=VERTEX_POINT('VERTEX1524',#230);
#232=CARTESIAN_POINT('POS2203',(7.62E-001,0.0E+000,0.0E+000));
#233=DIRECTION('DIR3443',(1.0E+000,0.0E+000,1.83880688453542E-016));
#234=DIRECTION('DIR3444',(-1.83880688453542E-016,0.0E+000,1.0E+000));
#235=AXIS2_PLACEMENT_3D('AXIS1241',#232,#233,#234);
#236=CIRCLE('ELLIPSE593',#235,3.3147E+000);
#237=EDGE_CURVE('EDGE2395',#231,#223,#236,.T.);
#238=ORIENTED_EDGE('COEDGE4784',*,*,#237,.F.);
#239=CARTESIAN_POINT('POS2204',(5.715E-001,4.05920268101503E-016,
   -3.3147E+000));
#240=DIRECTION('DIR3445',(1.0E+000,-0.0E+000,1.83880688453542E-016));
#241=VECTOR('VEC963',#240,1.0E+000);
#242=LINE('STRAIGHT963',#239,#241);
#243=EDGE_CURVE('EDGE2396',#164,#231,#242,.T.);
#244=ORIENTED_EDGE('COEDGE4785',*,*,#243,.F.);
#245=ORIENTED_EDGE('COEDGE4786',*,*,#170,.F.);
#246=EDGE_LOOP('NONE',(#229,#238,#244,#245));
#247=FACE_BOUND('LOOP1',#246,.T.);
#248=CARTESIAN_POINT('POS2205',(5.715E-001,0.0E+000,
   -3.50292711503997E-017));
#249=DIRECTION('DIR3446',(-1.0E+000,0.0E+000,-1.83880688453542E-016));
#250=DIRECTION('DIR3447',(-1.83880688453542E-016,0.0E+000,1.0E+000));
#251=AXIS2_PLACEMENT_3D('AXIS1242',#248,#249,#250);
#252=CYLINDRICAL_SURFACE('CONE_SURF269',#251,3.3147E+000);
#253=ADVANCED_FACE('FACE1049',(#247),#252,.T.);
#254=ORIENTED_EDGE('COEDGE4787',*,*,#228,.T.);
#255=ORIENTED_EDGE('COEDGE4788',*,*,#172,.F.);
#256=ORIENTED_EDGE('COEDGE4789',*,*,#243,.T.);
#257=EDGE_CURVE('EDGE2397',#223,#231,#236,.T.);
#258=ORIENTED_EDGE('COEDGE4790',*,*,#257,.F.);
#259=EDGE_LOOP('NONE',(#254,#255,#256,#258));
#260=FACE_BOUND('LOOP1',#259,.T.);
#261=ADVANCED_FACE('FACE1050',(#260),#252,.T.);
#262=CARTESIAN_POINT('POINT1525',(3.048E+000,1.18428560181172E-016,
   2.0828E+000));
#263=VERTEX_POINT('VERTEX1525',#262);
#264=CARTESIAN_POINT('POS2206',(2.83337E+000,1.18404904827618E-016,
   1.86817E+000));
#265=DIRECTION('DIR3448',(-7.07106781186547E-001,-7.79334711364389E-020,
   -7.07106781186548E-001));
#266=VECTOR('VEC964',#265,1.0E+000);
#267=LINE('STRAIGHT964',#264,#266);
#268=EDGE_CURVE('EDGE2398',#263,#183,#267,.T.);
#269=ORIENTED_EDGE('COEDGE4791',*,*,#268,.T.);
#270=ORIENTED_EDGE('COEDGE4792',*,*,#204,.T.);
#271=CARTESIAN_POINT('POINT1526',(3.048E+000,5.59890024967591E-016,
   -2.0828E+000));
#272=VERTEX_POINT('VERTEX1526',#271);
#273=CARTESIAN_POINT('POS2207',(2.83337E+000,5.75547676118324E-016,
   -1.86817E+000));
#274=DIRECTION('DIR3449',(7.07106781186547E-001,1.73107557943251E-016,
   -7.07106781186548E-001));
#275=VECTOR('VEC965',#274,1.0E+000);
#276=LINE('STRAIGHT965',#273,#275);
#277=EDGE_CURVE('EDGE2399',#192,#272,#276,.T.);
#278=ORIENTED_EDGE('COEDGE4793',*,*,#277,.T.);
#279=CARTESIAN_POINT('POS2208',(3.048E+000,3.73260016645061E-016,
   1.8663000832253E-016));
#280=DIRECTION('DIR3450',(-1.0E+000,0.0E+000,-6.12303176911189E-017));
#281=DIRECTION('DIR3451',(6.12303176911189E-017,0.0E+000,-1.0E+000));
#282=AXIS2_PLACEMENT_3D('AXIS1243',#279,#280,#281);
#283=CIRCLE('ELLIPSE594',#282,2.0828E+000);
#284=EDGE_CURVE('EDGE2400',#263,#272,#283,.T.);
#285=ORIENTED_EDGE('COEDGE4794',*,*,#284,.F.);
#286=EDGE_LOOP('NONE',(#269,#270,#278,#285));
#287=FACE_BOUND('LOOP1',#286,.T.);
#288=CARTESIAN_POINT('POS2209',(2.83337E+000,3.46976290472971E-016,
   1.73488145236485E-016));
#289=DIRECTION('DIR3452',(1.0E+000,1.22460635382238E-016,
   6.12303176911189E-017));
#290=DIRECTION('DIR3453',(-6.12303176911189E-017,1.10214571844014E-019,
   1.0E+000));
#291=AXIS2_PLACEMENT_3D('AXIS1244',#288,#289,#290);
#292=CONICAL_SURFACE('CONE_SURF270',#291,1.86817E+000,
   7.85398163397448E-001);
#293=ADVANCED_FACE('FACE1051',(#287),#292,.F.);
#294=ORIENTED_EDGE('COEDGE4795',*,*,#268,.F.);
#295=EDGE_CURVE('EDGE2401',#272,#263,#283,.T.);
#296=ORIENTED_EDGE('COEDGE4796',*,*,#295,.F.);
#297=ORIENTED_EDGE('COEDGE4797',*,*,#277,.F.);
#298=ORIENTED_EDGE('COEDGE4798',*,*,#215,.T.);
#299=EDGE_LOOP('NONE',(#294,#296,#297,#298));
#300=FACE_BOUND('LOOP1',#299,.T.);
#301=ADVANCED_FACE('FACE1052',(#300),#292,.F.);
#302=ORIENTED_EDGE('COEDGE4799',*,*,#257,.T.);
#303=ORIENTED_EDGE('COEDGE4800',*,*,#237,.T.);
#304=EDGE_LOOP('NONE',(#302,#303));
#305=FACE_BOUND('LOOP1',#304,.T.);
#306=CARTESIAN_POINT('POINT1527',(7.61999999999999E-001,
   -4.66575020806326E-017,3.937E+000));
#307=VERTEX_POINT('VERTEX1527',#306);
#308=CARTESIAN_POINT('POINT1528',(7.62000000000001E-001,
   3.73662540109399E-015,-3.937E+000));
#309=VERTEX_POINT('VERTEX1528',#308);
#310=CARTESIAN_POINT('POS2210',(7.62E-001,0.0E+000,1.39972506241898E-016
   ));
#311=DIRECTION('DIR3454',(1.0E+000,0.0E+000,1.83690953073357E-016));
#312=DIRECTION('DIR3455',(-1.83690953073357E-016,-1.07156538546961E-015,
   1.0E+000));
#313=AXIS2_PLACEMENT_3D('AXIS1245',#310,#311,#312);
#314=CIRCLE('ELLIPSE595',#313,3.937E+000);
#315=EDGE_CURVE('EDGE2402',#307,#309,#314,.T.);
#316=ORIENTED_EDGE('COEDGE4801',*,*,#315,.F.);
#317=EDGE_CURVE('EDGE2403',#309,#307,#314,.T.);
#318=ORIENTED_EDGE('COEDGE4802',*,*,#317,.F.);
#319=EDGE_LOOP('NONE',(#316,#318));
#320=FACE_BOUND('LOOP1',#319,.T.);
#321=CARTESIAN_POINT('POS2211',(7.62E-001,-4.66575020806326E-017,
   1.9685E+000));
#322=DIRECTION('DIR3456',(-1.0E+000,0.0E+000,-1.83690953073357E-016));
#323=DIRECTION('DIR3457',(0.0E+000,1.0E+000,0.0E+000));
#324=AXIS2_PLACEMENT_3D('AXIS1246',#321,#322,#323);
#325=PLANE('PLANE357',#324);
#326=ADVANCED_FACE('FACE1053',(#305,#320),#325,.T.);
#327=CARTESIAN_POINT('POINT1529',(2.667E+000,-1.63301257282214E-016,
   3.937E+000));
#328=VERTEX_POINT('VERTEX1529',#327);
#329=CARTESIAN_POINT('POS2212',(1.7145E+000,-3.73662540109399E-015,
   3.937E+000));
#330=DIRECTION('DIR3458',(1.0E+000,0.0E+000,1.83690953073357E-016));
#331=VECTOR('VEC966',#330,1.0E+000);
#332=LINE('STRAIGHT966',#329,#331);
#333=EDGE_CURVE('EDGE2404',#307,#328,#332,.T.);
#334=ORIENTED_EDGE('COEDGE4803',*,*,#333,.T.);
#335=CARTESIAN_POINT('POINT1530',(2.667E+000,3.73662540109399E-015,
   -3.937E+000));
#336=VERTEX_POINT('VERTEX1530',#335);
#337=CARTESIAN_POINT('POS2213',(2.667E+000,0.0E+000,
   4.89903771846642E-016));
#338=DIRECTION('DIR3459',(1.0E+000,0.0E+000,1.83690953073357E-016));
#339=DIRECTION('DIR3460',(-1.83690953073357E-016,-1.07156538546961E-015,
   1.0E+000));
#340=AXIS2_PLACEMENT_3D('AXIS1247',#337,#338,#339);
#341=CIRCLE('ELLIPSE596',#340,3.937E+000);
#342=EDGE_CURVE('EDGE2405',#336,#328,#341,.T.);
#343=ORIENTED_EDGE('COEDGE4804',*,*,#342,.F.);
#344=CARTESIAN_POINT('POS2214',(1.7145E+000,3.73662540109399E-015,
   -3.937E+000));
#345=DIRECTION('DIR3461',(-1.0E+000,-0.0E+000,-1.83690953073357E-016));
#346=VECTOR('VEC967',#345,1.0E+000);
#347=LINE('STRAIGHT967',#344,#346);
#348=EDGE_CURVE('EDGE2406',#336,#309,#347,.T.);
#349=ORIENTED_EDGE('COEDGE4805',*,*,#348,.T.);
#350=ORIENTED_EDGE('COEDGE4806',*,*,#317,.T.);
#351=EDGE_LOOP('NONE',(#334,#343,#349,#350));
#352=FACE_BOUND('LOOP1',#351,.T.);
#353=CARTESIAN_POINT('POS2215',(1.7145E+000,0.0E+000,
   3.1493813904427E-016));
#354=DIRECTION('DIR3462',(1.0E+000,0.0E+000,1.83690953073357E-016));
#355=DIRECTION('DIR3463',(-1.83690953073357E-016,-1.07156538546961E-015,
   1.0E+000));
#356=AXIS2_PLACEMENT_3D('AXIS1248',#353,#354,#355);
#357=CYLINDRICAL_SURFACE('CONE_SURF271',#356,3.937E+000);
#358=ADVANCED_FACE('FACE1054',(#352),#357,.T.);
#359=ORIENTED_EDGE('COEDGE4807',*,*,#295,.T.);
#360=ORIENTED_EDGE('COEDGE4808',*,*,#284,.T.);
#361=EDGE_LOOP('NONE',(#359,#360));
#362=FACE_BOUND('LOOP1',#361,.T.);
#363=CARTESIAN_POINT('POINT1531',(3.048E+000,-1.8663000832253E-016,
   3.556E+000));
#364=VERTEX_POINT('VERTEX1531',#363);
#365=CARTESIAN_POINT('POINT1532',(3.048E+000,3.3750164913107E-015,
   -3.556E+000));
#366=VERTEX_POINT('VERTEX1532',#365);
#367=CARTESIAN_POINT('POS2216',(3.048E+000,0.0E+000,
   5.59890024967591E-016));
#368=DIRECTION('DIR3464',(1.0E+000,2.18952885050753E-047,
   1.83690953073357E-016));
#369=DIRECTION('DIR3465',(-1.83690953073357E-016,-1.07156538546961E-015,
   1.0E+000));
#370=AXIS2_PLACEMENT_3D('AXIS1249',#367,#368,#369);
#371=CIRCLE('ELLIPSE597',#370,3.556E+000);
#372=EDGE_CURVE('EDGE2407',#364,#366,#371,.T.);
#373=ORIENTED_EDGE('COEDGE4809',*,*,#372,.T.);
#374=EDGE_CURVE('EDGE2408',#366,#364,#371,.T.);
#375=ORIENTED_EDGE('COEDGE4810',*,*,#374,.T.);
#376=EDGE_LOOP('NONE',(#373,#375));
#377=FACE_BOUND('LOOP1',#376,.T.);
#378=CARTESIAN_POINT('POS2217',(3.048E+000,-1.8663000832253E-016,
   1.778E+000));
#379=DIRECTION('DIR3466',(1.0E+000,0.0E+000,1.83690953073357E-016));
#380=DIRECTION('DIR3467',(0.0E+000,1.0E+000,0.0E+000));
#381=AXIS2_PLACEMENT_3D('AXIS1250',#378,#379,#380);
#382=PLANE('PLANE358',#381);
#383=ADVANCED_FACE('FACE1055',(#362,#377),#382,.T.);
#384=ORIENTED_EDGE('COEDGE4811',*,*,#333,.F.);
#385=ORIENTED_EDGE('COEDGE4812',*,*,#315,.T.);
#386=ORIENTED_EDGE('COEDGE4813',*,*,#348,.F.);
#387=EDGE_CURVE('EDGE2409',#328,#336,#341,.T.);
#388=ORIENTED_EDGE('COEDGE4814',*,*,#387,.F.);
#389=EDGE_LOOP('NONE',(#384,#385,#386,#388));
#390=FACE_BOUND('LOOP1',#389,.T.);
#391=ADVANCED_FACE('FACE1056',(#390),#357,.T.);
#392=CARTESIAN_POINT('POS2218',(2.8575E+000,-3.55582094620234E-015,
   3.7465E+000));
#393=DIRECTION('DIR3468',(7.07106781186548E-001,6.71118404843145E-016,
   -7.07106781186547E-001));
#394=VECTOR('VEC968',#393,1.0E+000);
#395=LINE('STRAIGHT968',#392,#394);
#396=EDGE_CURVE('EDGE2410',#328,#364,#395,.T.);
#397=ORIENTED_EDGE('COEDGE4815',*,*,#396,.T.);
#398=ORIENTED_EDGE('COEDGE4816',*,*,#374,.F.);
#399=CARTESIAN_POINT('POS2219',(2.8575E+000,3.55582094620234E-015,
   -3.7465E+000));
#400=DIRECTION('DIR3469',(-7.07106781186548E-001,6.71118404843145E-016,
   -7.07106781186547E-001));
#401=VECTOR('VEC969',#400,1.0E+000);
#402=LINE('STRAIGHT969',#399,#401);
#403=EDGE_CURVE('EDGE2411',#366,#336,#402,.T.);
#404=ORIENTED_EDGE('COEDGE4817',*,*,#403,.T.);
#405=ORIENTED_EDGE('COEDGE4818',*,*,#342,.T.);
#406=EDGE_LOOP('NONE',(#397,#398,#404,#405));
#407=FACE_BOUND('LOOP1',#406,.T.);
#408=CARTESIAN_POINT('POS2220',(2.8575E+000,0.0E+000,
   5.24896898407116E-016));
#409=DIRECTION('DIR3470',(-1.0E+000,0.0E+000,-1.83690953073357E-016));
#410=DIRECTION('DIR3471',(-1.83690953073357E-016,-1.07156538546961E-015,
   1.0E+000));
#411=AXIS2_PLACEMENT_3D('AXIS1251',#408,#409,#410);
#412=CONICAL_SURFACE('CONE_SURF272',#411,3.7465E+000,
   7.85398163397448E-001);
#413=ADVANCED_FACE('FACE1057',(#407),#412,.T.);
#414=ORIENTED_EDGE('COEDGE4819',*,*,#396,.F.);
#415=ORIENTED_EDGE('COEDGE4820',*,*,#387,.T.);
#416=ORIENTED_EDGE('COEDGE4821',*,*,#403,.F.);
#417=ORIENTED_EDGE('COEDGE4822',*,*,#372,.F.);
#418=EDGE_LOOP('NONE',(#414,#415,#416,#417));
#419=FACE_BOUND('LOOP1',#418,.T.);
#420=ADVANCED_FACE('FACE1058',(#419),#412,.T.);
#421=CLOSED_SHELL('SHELL15',(#42,#51,#76,#108,#116,#148,#156,#181,#213,
   #221,#253,#261,#293,#301,#326,#358,#383,#391,#413,#420));
#422=MANIFOLD_SOLID_BREP('LUMP15',#421);
#423=ADVANCED_BREP_SHAPE_REPRESENTATION('BODY14',(#422),#424);
#424=(GEOMETRIC_REPRESENTATION_CONTEXT(3) 
   GLOBAL_UNCERTAINTY_ASSIGNED_CONTEXT((#425)) 
   GLOBAL_UNIT_ASSIGNED_CONTEXT((#426,#427,#428)) REPRESENTATION_CONTEXT
   ('',''));
#425=UNCERTAINTY_MEASURE_WITH_UNIT(LENGTH_MEASURE(1.0E-006),#426,'','');
#426=(LENGTH_UNIT() NAMED_UNIT(*) SI_UNIT(.MILLI.,.METRE.));
#427=(NAMED_UNIT(*) PLANE_ANGLE_UNIT() SI_UNIT($,.RADIAN.));
#428=(NAMED_UNIT(*) SI_UNIT($,.STERADIAN.) SOLID_ANGLE_UNIT());
#429=APPLICATION_CONTEXT(
   'CONFIGURATION CONTROLLED 3D DESIGNS OF MECHANICAL PARTS AND 
ASSEMBLIES');
#430=APPLICATION_PROTOCOL_DEFINITION('INTERNATIONAL STANDARD',
   'config_control_design',1994,#429);
#431=MECHANICAL_CONTEXT('MECHANICAL_CONTEXT_NAME',#429,'mechanical');
#432=PRODUCT('PRODUCT_ID_15','PRODUCT_NAME_15','PRODUCT_DESCRIPTION',(
   #431));
#433=PRODUCT_RELATED_PRODUCT_CATEGORY('detail',
   'PRODUCT_RELATED_PRODUCT_CATEGORY_DESCRIPTION',(#432));
#434=PERSON_AND_ORGANIZATION_ROLE('design_owner');
#435=CC_DESIGN_PERSON_AND_ORGANIZATION_ASSIGNMENT(#438,#434,(#432));
#436=PERSON('ID_113','PERSON_LAST_NAME','PERSON_FIRST_NAME',$,$,$);
#437=ORGANIZATION('ORGANIZATION_ID','ORGANIZATION_NAME',
   'ORGANIZATION_DESCRIPTION');
#438=PERSON_AND_ORGANIZATION(#436,#437);
#439=PRODUCT_DEFINITION_FORMATION_WITH_SPECIFIED_SOURCE(
   'PRODUCT_DEFINITION_FORMATION_ID',
   'PRODUCT_DEFINITION_FORMATION_DESCRIPTION',#432,.NOT_KNOWN.);
#440=PERSON_AND_ORGANIZATION_ROLE('creator');
#441=CC_DESIGN_PERSON_AND_ORGANIZATION_ASSIGNMENT(#444,#440,(#439));
#442=PERSON('ID_114','PERSON_LAST_NAME','PERSON_FIRST_NAME',$,$,$);
#443=ORGANIZATION('ORGANIZATION_ID','ORGANIZATION_NAME',
   'ORGANIZATION_DESCRIPTION');
#444=PERSON_AND_ORGANIZATION(#442,#443);
#445=PERSON_AND_ORGANIZATION_ROLE('part_supplier');
#446=CC_DESIGN_PERSON_AND_ORGANIZATION_ASSIGNMENT(#449,#445,(#439));
#447=PERSON('ID_115','PERSON_LAST_NAME','PERSON_FIRST_NAME',$,$,$);
#448=ORGANIZATION('ORGANIZATION_ID','ORGANIZATION_NAME',
   'ORGANIZATION_DESCRIPTION');
#449=PERSON_AND_ORGANIZATION(#447,#448);
#450=APPROVAL_STATUS('approved');
#451=APPROVAL(#450,'APPROVAL_LEVEL');
#452=CC_DESIGN_APPROVAL(#451,(#439));
#453=APPROVAL_ROLE('APPROVAL_ROLE');
#454=APPROVAL_PERSON_ORGANIZATION(#457,#451,#453);
#455=PERSON('ID_116','PERSON_LAST_NAME','PERSON_FIRST_NAME',$,$,$);
#456=ORGANIZATION('ORGANIZATION_ID','ORGANIZATION_NAME',
   'ORGANIZATION_DESCRIPTION');
#457=PERSON_AND_ORGANIZATION(#455,#456);
#458=APPROVAL_DATE_TIME(#462,#451);
#459=CALENDAR_DATE(1997,1,1);
#460=COORDINATED_UNIVERSAL_TIME_OFFSET(0,0,.AHEAD.);
#461=LOCAL_TIME(0,0,0.0E+000,#460);
#462=DATE_AND_TIME(#459,#461);
#463=SECURITY_CLASSIFICATION_LEVEL('classified');
#464=SECURITY_CLASSIFICATION('SECURITY_CLASSIFICATION_NAME',
   'SECURITY_CLASSIFICATION_PURPOSE',#463);
#465=CC_DESIGN_SECURITY_CLASSIFICATION(#464,(#439));
#466=APPROVAL_STATUS('approved');
#467=APPROVAL(#466,'APPROVAL_LEVEL');
#468=CC_DESIGN_APPROVAL(#467,(#464));
#469=APPROVAL_ROLE('APPROVAL_ROLE');
#470=APPROVAL_PERSON_ORGANIZATION(#473,#467,#469);
#471=PERSON('ID_117','PERSON_LAST_NAME','PERSON_FIRST_NAME',$,$,$);
#472=ORGANIZATION('ORGANIZATION_ID','ORGANIZATION_NAME',
   'ORGANIZATION_DESCRIPTION');
#473=PERSON_AND_ORGANIZATION(#471,#472);
#474=APPROVAL_DATE_TIME(#478,#467);
#475=CALENDAR_DATE(1997,1,1);
#476=COORDINATED_UNIVERSAL_TIME_OFFSET(0,0,.AHEAD.);
#477=LOCAL_TIME(0,0,0.0E+000,#476);
#478=DATE_AND_TIME(#475,#477);
#479=PERSON_AND_ORGANIZATION_ROLE('classification_officer');
#480=CC_DESIGN_PERSON_AND_ORGANIZATION_ASSIGNMENT(#483,#479,(#464));
#481=PERSON('ID_118','PERSON_LAST_NAME','PERSON_FIRST_NAME',$,$,$);
#482=ORGANIZATION('ORGANIZATION_ID','ORGANIZATION_NAME',
   'ORGANIZATION_DESCRIPTION');
#483=PERSON_AND_ORGANIZATION(#481,#482);
#484=DATE_TIME_ROLE('classification_date');
#485=CC_DESIGN_DATE_AND_TIME_ASSIGNMENT(#489,#484,(#464));
#486=CALENDAR_DATE(1997,1,1);
#487=COORDINATED_UNIVERSAL_TIME_OFFSET(0,0,.AHEAD.);
#488=LOCAL_TIME(0,0,0.0E+000,#487);
#489=DATE_AND_TIME(#486,#488);
#490=DESIGN_CONTEXT('DESIGN_CONTEXT_NAME',#429,'design');
#491=PRODUCT_DEFINITION('PRODUCT_DEFINITION_ID',
   'PRODUCT_DEFINITION_DESCRIPTION',#439,#490);
#492=PERSON_AND_ORGANIZATION_ROLE('creator');
#493=CC_DESIGN_PERSON_AND_ORGANIZATION_ASSIGNMENT(#496,#492,(#491));
#494=PERSON('ID_119','PERSON_LAST_NAME','PERSON_FIRST_NAME',$,$,$);
#495=ORGANIZATION('ORGANIZATION_ID','ORGANIZATION_NAME',
   'ORGANIZATION_DESCRIPTION');
#496=PERSON_AND_ORGANIZATION(#494,#495);
#497=DATE_TIME_ROLE('creation_date');
#498=CC_DESIGN_DATE_AND_TIME_ASSIGNMENT(#502,#497,(#491));
#499=CALENDAR_DATE(1997,1,1);
#500=COORDINATED_UNIVERSAL_TIME_OFFSET(0,0,.AHEAD.);
#501=LOCAL_TIME(0,0,0.0E+000,#500);
#502=DATE_AND_TIME(#499,#501);
#503=APPROVAL_STATUS('approved');
#504=APPROVAL(#503,'APPROVAL_LEVEL');
#505=CC_DESIGN_APPROVAL(#504,(#491));
#506=APPROVAL_ROLE('APPROVAL_ROLE');
#507=APPROVAL_PERSON_ORGANIZATION(#510,#504,#506);
#508=PERSON('ID_120','PERSON_LAST_NAME','PERSON_FIRST_NAME',$,$,$);
#509=ORGANIZATION('ORGANIZATION_ID','ORGANIZATION_NAME',
   'ORGANIZATION_DESCRIPTION');
#510=PERSON_AND_ORGANIZATION(#508,#509);
#511=APPROVAL_DATE_TIME(#515,#504);
#512=CALENDAR_DATE(1997,1,1);
#513=COORDINATED_UNIVERSAL_TIME_OFFSET(0,0,.AHEAD.);
#514=LOCAL_TIME(0,0,0.0E+000,#513);
#515=DATE_AND_TIME(#512,#514);
#516=PRODUCT_DEFINITION_SHAPE('PRODUCT_DEFINITION_SHAPE_NAME',
   'PRODUCT_DEFINITION_SHAPE_DESCRIPTION',#491);
#517=SHAPE_DEFINITION_REPRESENTATION(#516,#423);
ENDSEC;
END-ISO-10303-21;
                
                  
               
                   
                    
     
                
