ISO-10303-21;
HEADER;
/****************************************************************
 * Generated by software with PDE/Lib inside                    *
 * PDElib Version v51a, created Thu 01/14/2010                  *
 * ITI Transcendata (http://www.transcendata.com/)              *
 ****************************************************************/
FILE_DESCRIPTION((''),'2;1');
FILE_NAME('S:\\Engineering\\Public\\Projects\\FlatPack 2\\FP2 19in 600 15 INCH DEEP\\Workspace\\111junk\\STANDOFFS\\BLIND\\METRIC\\BSO-M4-6-ZI.stp','2012-07-02T08:18:57',('stlaus'),(''),'Autodesk Inventor 2011','Autodesk Inventor 2011','');
FILE_SCHEMA(('AUTOMOTIVE_DESIGN { 1 0 10303 214 1 1 1 1 }'));
ENDSEC;
DATA;
#5=APPLICATION_CONTEXT('automotive design');
#6=APPLICATION_PROTOCOL_DEFINITION('International Standard','automotive_design',2001,#5);
#7=PRODUCT_CONTEXT('',#5,'mechanical');
#8=PRODUCT('Assembly1','Assembly1',$,(#7));
#9=PRODUCT_RELATED_PRODUCT_CATEGORY('part',$,(#8));
#10=PRODUCT_DEFINITION_FORMATION('',$,#8);
#11=PRODUCT_DEFINITION_CONTEXT('part definition',#5,'design');
#12=PRODUCT_DEFINITION('',$,#10,#11);
#18=(NAMED_UNIT(*)PLANE_ANGLE_UNIT()SI_UNIT($,.RADIAN.));
#19=DIMENSIONAL_EXPONENTS(0.0,0.0,0.0,0.0,0.0,0.0,0.0);
#20=PLANE_ANGLE_MEASURE_WITH_UNIT(PLANE_ANGLE_MEASURE(0.017453292500000),#18);
#24=(CONVERSION_BASED_UNIT('DEGREE',#20)NAMED_UNIT(#19)PLANE_ANGLE_UNIT());
#28=(NAMED_UNIT(*)SI_UNIT($,.STERADIAN.)SOLID_ANGLE_UNIT());
#32=(LENGTH_UNIT()NAMED_UNIT(*)SI_UNIT(.CENTI.,.METRE.));
#33=DIMENSIONAL_EXPONENTS(1.0,0.0,0.0,0.0,0.0,0.0,0.0);
#34=LENGTH_MEASURE_WITH_UNIT(LENGTH_MEASURE(2.540000000000000),#32);
#38=(CONVERSION_BASED_UNIT('INCH',#34)LENGTH_UNIT()NAMED_UNIT(#33));
#40=UNCERTAINTY_MEASURE_WITH_UNIT(LENGTH_MEASURE(0.000393700787402),#38,'DISTANCE_ACCURACY_VALUE','');
#42=(GEOMETRIC_REPRESENTATION_CONTEXT(3)GLOBAL_UNCERTAINTY_ASSIGNED_CONTEXT((#40))GLOBAL_UNIT_ASSIGNED_CONTEXT((#24,#28,#38))REPRESENTATION_CONTEXT('None','None'));
#43=AXIS2_PLACEMENT_3D('',#44,#45,#46);
#44=CARTESIAN_POINT('',(0.0,0.0,0.0));
#45=DIRECTION('',(0.0,0.0,1.0));
#46=DIRECTION('',(1.0,0.0,0.0));
#47=SHAPE_REPRESENTATION('',(#43,#674),#42);
#48=PRODUCT_DEFINITION_SHAPE('','',#12);
#49=SHAPE_DEFINITION_REPRESENTATION(#48,#47);
#50=APPLICATION_CONTEXT('automotive design');
#51=APPLICATION_PROTOCOL_DEFINITION('International Standard','automotive_design',2001,#50);
#52=PRODUCT_CONTEXT('',#50,'mechanical');
#53=PRODUCT('BSO-M4-6 PEM BLIND STANDOFF','BSO-M4-6 PEM BLIND STANDOFF',$,(#52));
#54=PRODUCT_RELATED_PRODUCT_CATEGORY('part',$,(#53));
#55=PRODUCT_DEFINITION_FORMATION('',$,#53);
#56=PRODUCT_DEFINITION_CONTEXT('part definition',#50,'design');
#57=PRODUCT_DEFINITION('',$,#55,#56);
#63=(NAMED_UNIT(*)PLANE_ANGLE_UNIT()SI_UNIT($,.RADIAN.));
#64=DIMENSIONAL_EXPONENTS(0.0,0.0,0.0,0.0,0.0,0.0,0.0);
#65=PLANE_ANGLE_MEASURE_WITH_UNIT(PLANE_ANGLE_MEASURE(0.017453292500000),#63);
#69=(CONVERSION_BASED_UNIT('DEGREE',#65)NAMED_UNIT(#64)PLANE_ANGLE_UNIT());
#73=(NAMED_UNIT(*)SI_UNIT($,.STERADIAN.)SOLID_ANGLE_UNIT());
#77=(LENGTH_UNIT()NAMED_UNIT(*)SI_UNIT(.MILLI.,.METRE.));
#79=UNCERTAINTY_MEASURE_WITH_UNIT(LENGTH_MEASURE(0.010000000000000),#77,'DISTANCE_ACCURACY_VALUE','');
#81=(GEOMETRIC_REPRESENTATION_CONTEXT(3)GLOBAL_UNCERTAINTY_ASSIGNED_CONTEXT((#79))GLOBAL_UNIT_ASSIGNED_CONTEXT((#69,#73,#77))REPRESENTATION_CONTEXT('None','None'));
#82=AXIS2_PLACEMENT_3D('',#83,#84,#85);
#83=CARTESIAN_POINT('',(0.0,0.0,0.0));
#84=DIRECTION('',(0.0,0.0,1.0));
#85=DIRECTION('',(1.0,0.0,0.0));
#86=SHAPE_REPRESENTATION('',(#82),#81);
#87=PRODUCT_DEFINITION_SHAPE('','',#57);
#88=SHAPE_DEFINITION_REPRESENTATION(#87,#86);
#94=(NAMED_UNIT(*)PLANE_ANGLE_UNIT()SI_UNIT($,.RADIAN.));
#95=DIMENSIONAL_EXPONENTS(0.0,0.0,0.0,0.0,0.0,0.0,0.0);
#96=PLANE_ANGLE_MEASURE_WITH_UNIT(PLANE_ANGLE_MEASURE(0.017453292500000),#94);
#100=(CONVERSION_BASED_UNIT('DEGREE',#96)NAMED_UNIT(#95)PLANE_ANGLE_UNIT());
#104=(NAMED_UNIT(*)SI_UNIT($,.STERADIAN.)SOLID_ANGLE_UNIT());
#108=(LENGTH_UNIT()NAMED_UNIT(*)SI_UNIT(.MILLI.,.METRE.));
#110=UNCERTAINTY_MEASURE_WITH_UNIT(LENGTH_MEASURE(0.000001000000000),#108,'DISTANCE_ACCURACY_VALUE','');
#112=(GEOMETRIC_REPRESENTATION_CONTEXT(3)GLOBAL_UNCERTAINTY_ASSIGNED_CONTEXT((#110))GLOBAL_UNIT_ASSIGNED_CONTEXT((#100,#104,#108))REPRESENTATION_CONTEXT('','3D'));
#113=CARTESIAN_POINT('',(0.0,0.0,5.900000000000000));
#114=DIRECTION('',(0.0,0.0,1.0));
#115=DIRECTION('',(-1.0,0.0,0.0));
#116=AXIS2_PLACEMENT_3D('',#113,#114,#115);
#117=CONICAL_SURFACE('',#116,2.100000000000000,45.000000000000007);
#118=CARTESIAN_POINT('',(2.0,-2.449213E-016,5.800000000000001));
#119=VERTEX_POINT('',#118);
#120=CARTESIAN_POINT('',(0.0,0.0,5.800000000000001));
#121=DIRECTION('',(0.0,0.0,-1.0));
#122=DIRECTION('',(-1.0,0.0,0.0));
#123=AXIS2_PLACEMENT_3D('',#120,#121,#122);
#124=CIRCLE('',#123,2.0);
#125=EDGE_CURVE('',#119,#119,#124,.T.);
#126=ORIENTED_EDGE('',*,*,#125,.T.);
#127=EDGE_LOOP('',(#126));
#128=FACE_OUTER_BOUND('',#127,.T.);
#129=CARTESIAN_POINT('',(2.200000000000000,2.694134E-016,6.000000000000001));
#130=VERTEX_POINT('',#129);
#131=CARTESIAN_POINT('',(0.0,0.0,6.000000000000001));
#132=DIRECTION('',(0.0,0.0,1.0));
#133=DIRECTION('',(-1.0,0.0,0.0));
#134=AXIS2_PLACEMENT_3D('',#131,#132,#133);
#135=CIRCLE('',#134,2.200000000000000);
#136=EDGE_CURVE('',#130,#130,#135,.T.);
#137=ORIENTED_EDGE('',*,*,#136,.T.);
#138=EDGE_LOOP('',(#137));
#139=FACE_BOUND('',#138,.T.);
#140=ADVANCED_FACE('',(#128,#139),#117,.F.);
#141=CARTESIAN_POINT('',(0.0,0.0,6.000000000000001));
#142=DIRECTION('',(0.0,0.0,-1.0));
#143=DIRECTION('',(-1.0,0.0,0.0));
#144=AXIS2_PLACEMENT_3D('',#141,#142,#143);
#145=PLANE('',#144);
#146=CARTESIAN_POINT('',(3.480000000000000,-4.261630E-016,6.000000000000001));
#147=VERTEX_POINT('',#146);
#148=CARTESIAN_POINT('',(0.0,0.0,6.000000000000001));
#149=DIRECTION('',(0.0,0.0,-1.0));
#150=DIRECTION('',(-1.0,0.0,0.0));
#151=AXIS2_PLACEMENT_3D('',#148,#149,#150);
#152=CIRCLE('',#151,3.480000000000000);
#153=EDGE_CURVE('',#147,#147,#152,.T.);
#154=ORIENTED_EDGE('',*,*,#153,.F.);
#155=EDGE_LOOP('',(#154));
#156=FACE_OUTER_BOUND('',#155,.T.);
#157=ORIENTED_EDGE('',*,*,#136,.F.);
#158=EDGE_LOOP('',(#157));
#159=FACE_BOUND('',#158,.T.);
#160=ADVANCED_FACE('',(#156,#159),#145,.F.);
#161=CARTESIAN_POINT('',(0.0,0.0,3.130000000000001));
#162=DIRECTION('',(0.0,0.0,1.0));
#163=DIRECTION('',(1.0,0.0,0.0));
#164=AXIS2_PLACEMENT_3D('',#161,#162,#163);
#165=CYLINDRICAL_SURFACE('',#164,2.0);
#166=CARTESIAN_POINT('',(2.0,0.0,0.260000000000000));
#167=VERTEX_POINT('',#166);
#168=CARTESIAN_POINT('',(0.0,0.0,0.260000000000000));
#169=DIRECTION('',(0.0,0.0,1.0));
#170=DIRECTION('',(1.0,0.0,0.0));
#171=AXIS2_PLACEMENT_3D('',#168,#169,#170);
#172=CIRCLE('',#171,2.0);
#173=EDGE_CURVE('',#167,#167,#172,.T.);
#174=ORIENTED_EDGE('',*,*,#173,.F.);
#175=EDGE_LOOP('',(#174));
#176=FACE_OUTER_BOUND('',#175,.T.);
#177=ORIENTED_EDGE('',*,*,#125,.F.);
#178=EDGE_LOOP('',(#177));
#179=FACE_BOUND('',#178,.T.);
#180=ADVANCED_FACE('',(#176,#179),#165,.F.);
#181=CARTESIAN_POINT('',(0.0,0.0,5.960000000000001));
#182=DIRECTION('',(0.0,0.0,-1.0));
#183=DIRECTION('',(-1.0,0.0,0.0));
#184=AXIS2_PLACEMENT_3D('',#181,#182,#183);
#185=CONICAL_SURFACE('',#184,3.520000000000001,44.999999999999993);
#186=ORIENTED_EDGE('',*,*,#153,.T.);
#187=EDGE_LOOP('',(#186));
#188=FACE_OUTER_BOUND('',#187,.T.);
#189=CARTESIAN_POINT('',(3.560000000000001,4.359599E-016,5.920000000000001));
#190=VERTEX_POINT('',#189);
#191=CARTESIAN_POINT('',(0.0,0.0,5.920000000000001));
#192=DIRECTION('',(0.0,0.0,1.0));
#193=DIRECTION('',(-1.0,0.0,0.0));
#194=AXIS2_PLACEMENT_3D('',#191,#192,#193);
#195=CIRCLE('',#194,3.560000000000001);
#196=EDGE_CURVE('',#190,#190,#195,.T.);
#197=ORIENTED_EDGE('',*,*,#196,.T.);
#198=EDGE_LOOP('',(#197));
#199=FACE_BOUND('',#198,.T.);
#200=ADVANCED_FACE('',(#188,#199),#185,.T.);
#201=CARTESIAN_POINT('',(0.0,0.0,0.0));
#202=DIRECTION('',(0.0,0.0,1.0));
#203=DIRECTION('',(-1.0,0.0,0.0));
#204=AXIS2_PLACEMENT_3D('',#201,#202,#203);
#205=CYLINDRICAL_SURFACE('',#204,3.560000000000001);
#206=CARTESIAN_POINT('',(0.0,-3.560000000000001,2.603499999999999));
#207=VERTEX_POINT('',#206);
#208=CARTESIAN_POINT('',(0.0,0.0,2.603499999999999));
#209=DIRECTION('',(0.0,0.0,1.0));
#210=DIRECTION('',(-1.0,0.0,0.0));
#211=AXIS2_PLACEMENT_3D('',#208,#209,#210);
#212=CIRCLE('',#211,3.560000000000001);
#213=EDGE_CURVE('',#207,#207,#212,.T.);
#214=ORIENTED_EDGE('',*,*,#213,.T.);
#215=EDGE_LOOP('',(#214));
#216=FACE_OUTER_BOUND('',#215,.T.);
#217=ORIENTED_EDGE('',*,*,#196,.F.);
#218=EDGE_LOOP('',(#217));
#219=FACE_BOUND('',#218,.T.);
#220=ADVANCED_FACE('',(#216,#219),#205,.T.);
#221=CARTESIAN_POINT('',(0.0,0.0,-0.340860619027560));
#222=DIRECTION('',(0.0,0.0,1.0));
#223=DIRECTION('',(1.0,0.0,0.0));
#224=AXIS2_PLACEMENT_3D('',#221,#222,#223);
#225=CONICAL_SURFACE('',#224,1.0,59.000000000000007);
#226=CARTESIAN_POINT('',(-1.567287334588865,-1.919310E-016,0.0));
#227=VERTEX_POINT('',#226);
#228=CARTESIAN_POINT('',(0.0,0.0,0.0));
#229=DIRECTION('',(0.0,0.0,1.0));
#230=DIRECTION('',(1.0,0.0,0.0));
#231=AXIS2_PLACEMENT_3D('',#228,#229,#230);
#232=CIRCLE('',#231,1.567287334588865);
#233=EDGE_CURVE('',#227,#227,#232,.T.);
#234=ORIENTED_EDGE('',*,*,#233,.F.);
#235=EDGE_LOOP('',(#234));
#236=FACE_OUTER_BOUND('',#235,.T.);
#237=ORIENTED_EDGE('',*,*,#173,.T.);
#238=EDGE_LOOP('',(#237));
#239=FACE_BOUND('',#238,.T.);
#240=ADVANCED_FACE('',(#236,#239),#225,.F.);
#241=CARTESIAN_POINT('',(0.0,0.0,2.476500000000000));
#242=DIRECTION('',(0.0,0.0,-1.0));
#243=DIRECTION('',(0.0,-1.0,0.0));
#244=AXIS2_PLACEMENT_3D('',#241,#242,#243);
#245=CYLINDRICAL_SURFACE('',#244,3.306000000000001);
#246=CARTESIAN_POINT('',(0.0,-3.306000000000001,2.603499999999999));
#247=VERTEX_POINT('',#246);
#248=CARTESIAN_POINT('',(0.0,0.0,2.603499999999999));
#249=DIRECTION('',(0.0,0.0,-1.0));
#250=DIRECTION('',(0.0,-1.0,0.0));
#251=AXIS2_PLACEMENT_3D('',#248,#249,#250);
#252=CIRCLE('',#251,3.306000000000001);
#253=EDGE_CURVE('',#247,#247,#252,.T.);
#254=ORIENTED_EDGE('',*,*,#253,.T.);
#255=EDGE_LOOP('',(#254));
#256=FACE_OUTER_BOUND('',#255,.T.);
#257=CARTESIAN_POINT('',(0.0,-3.306000000000001,2.349500000000000));
#258=VERTEX_POINT('',#257);
#259=CARTESIAN_POINT('',(0.0,0.0,2.349500000000000));
#260=DIRECTION('',(0.0,0.0,-1.0));
#261=DIRECTION('',(0.0,-1.0,0.0));
#262=AXIS2_PLACEMENT_3D('',#259,#260,#261);
#263=CIRCLE('',#262,3.306000000000001);
#264=EDGE_CURVE('',#258,#258,#263,.T.);
#265=ORIENTED_EDGE('',*,*,#264,.F.);
#266=EDGE_LOOP('',(#265));
#267=FACE_BOUND('',#266,.T.);
#268=ADVANCED_FACE('',(#256,#267),#245,.T.);
#269=CARTESIAN_POINT('',(0.0,-3.433000000000001,2.603499999999999));
#270=DIRECTION('',(0.0,0.0,1.0));
#271=DIRECTION('',(1.0,0.0,0.0));
#272=AXIS2_PLACEMENT_3D('',#269,#270,#271);
#273=PLANE('',#272);
#274=ORIENTED_EDGE('',*,*,#213,.F.);
#275=EDGE_LOOP('',(#274));
#276=FACE_OUTER_BOUND('',#275,.T.);
#277=ORIENTED_EDGE('',*,*,#253,.F.);
#278=EDGE_LOOP('',(#277));
#279=FACE_BOUND('',#278,.T.);
#280=ADVANCED_FACE('',(#276,#279),#273,.F.);
#281=CARTESIAN_POINT('',(0.0,-3.433000000000001,2.349500000000000));
#282=DIRECTION('',(0.0,0.0,-1.0));
#283=DIRECTION('',(-1.0,0.0,0.0));
#284=AXIS2_PLACEMENT_3D('',#281,#282,#283);
#285=PLANE('',#284);
#286=CARTESIAN_POINT('',(0.0,-3.560000000000001,2.349500000000000));
#287=VERTEX_POINT('',#286);
#288=CARTESIAN_POINT('',(0.0,0.0,2.349500000000000));
#289=DIRECTION('',(0.0,0.0,-1.0));
#290=DIRECTION('',(-1.0,0.0,0.0));
#291=AXIS2_PLACEMENT_3D('',#288,#289,#290);
#292=CIRCLE('',#291,3.560000000000001);
#293=EDGE_CURVE('',#287,#287,#292,.T.);
#294=ORIENTED_EDGE('',*,*,#293,.F.);
#295=EDGE_LOOP('',(#294));
#296=FACE_OUTER_BOUND('',#295,.T.);
#297=ORIENTED_EDGE('',*,*,#264,.T.);
#298=EDGE_LOOP('',(#297));
#299=FACE_BOUND('',#298,.T.);
#300=ADVANCED_FACE('',(#296,#299),#285,.F.);
#301=CARTESIAN_POINT('',(0.0,0.0,0.0));
#302=DIRECTION('',(0.0,0.0,1.0));
#303=DIRECTION('',(-1.0,0.0,0.0));
#304=AXIS2_PLACEMENT_3D('',#301,#302,#303);
#305=CYLINDRICAL_SURFACE('',#304,3.560000000000001);
#306=CARTESIAN_POINT('',(0.0,-3.560000000000001,2.031999999999999));
#307=VERTEX_POINT('',#306);
#308=CARTESIAN_POINT('',(0.0,0.0,2.031999999999999));
#309=DIRECTION('',(0.0,0.0,1.0));
#310=DIRECTION('',(-1.0,0.0,0.0));
#311=AXIS2_PLACEMENT_3D('',#308,#309,#310);
#312=CIRCLE('',#311,3.560000000000001);
#313=EDGE_CURVE('',#307,#307,#312,.T.);
#314=ORIENTED_EDGE('',*,*,#313,.T.);
#315=EDGE_LOOP('',(#314));
#316=FACE_OUTER_BOUND('',#315,.T.);
#317=ORIENTED_EDGE('',*,*,#293,.T.);
#318=EDGE_LOOP('',(#317));
#319=FACE_BOUND('',#318,.T.);
#320=ADVANCED_FACE('',(#316,#319),#305,.T.);
#321=CARTESIAN_POINT('',(0.0,0.0,1.904999999999999));
#322=DIRECTION('',(0.0,0.0,-1.0));
#323=DIRECTION('',(0.0,-1.0,0.0));
#324=AXIS2_PLACEMENT_3D('',#321,#322,#323);
#325=CYLINDRICAL_SURFACE('',#324,3.306000000000001);
#326=CARTESIAN_POINT('',(0.0,-3.306000000000001,2.031999999999999));
#327=VERTEX_POINT('',#326);
#328=CARTESIAN_POINT('',(0.0,0.0,2.031999999999999));
#329=DIRECTION('',(0.0,0.0,-1.0));
#330=DIRECTION('',(0.0,-1.0,0.0));
#331=AXIS2_PLACEMENT_3D('',#328,#329,#330);
#332=CIRCLE('',#331,3.306000000000001);
#333=EDGE_CURVE('',#327,#327,#332,.T.);
#334=ORIENTED_EDGE('',*,*,#333,.T.);
#335=EDGE_LOOP('',(#334));
#336=FACE_OUTER_BOUND('',#335,.T.);
#337=CARTESIAN_POINT('',(0.0,-3.306000000000001,1.778000000000000));
#338=VERTEX_POINT('',#337);
#339=CARTESIAN_POINT('',(0.0,0.0,1.778000000000000));
#340=DIRECTION('',(0.0,0.0,-1.0));
#341=DIRECTION('',(0.0,-1.0,0.0));
#342=AXIS2_PLACEMENT_3D('',#339,#340,#341);
#343=CIRCLE('',#342,3.306000000000001);
#344=EDGE_CURVE('',#338,#338,#343,.T.);
#345=ORIENTED_EDGE('',*,*,#344,.F.);
#346=EDGE_LOOP('',(#345));
#347=FACE_BOUND('',#346,.T.);
#348=ADVANCED_FACE('',(#336,#347),#325,.T.);
#349=CARTESIAN_POINT('',(0.0,-3.433000000000001,2.031999999999999));
#350=DIRECTION('',(0.0,0.0,1.0));
#351=DIRECTION('',(1.0,0.0,0.0));
#352=AXIS2_PLACEMENT_3D('',#349,#350,#351);
#353=PLANE('',#352);
#354=ORIENTED_EDGE('',*,*,#313,.F.);
#355=EDGE_LOOP('',(#354));
#356=FACE_OUTER_BOUND('',#355,.T.);
#357=ORIENTED_EDGE('',*,*,#333,.F.);
#358=EDGE_LOOP('',(#357));
#359=FACE_BOUND('',#358,.T.);
#360=ADVANCED_FACE('',(#356,#359),#353,.F.);
#361=CARTESIAN_POINT('',(0.0,-3.433000000000001,1.778000000000000));
#362=DIRECTION('',(0.0,0.0,-1.0));
#363=DIRECTION('',(-1.0,0.0,0.0));
#364=AXIS2_PLACEMENT_3D('',#361,#362,#363);
#365=PLANE('',#364);
#366=CARTESIAN_POINT('',(0.0,-3.560000000000001,1.778000000000000));
#367=VERTEX_POINT('',#366);
#368=CARTESIAN_POINT('',(0.0,0.0,1.778000000000000));
#369=DIRECTION('',(0.0,0.0,-1.0));
#370=DIRECTION('',(-1.0,0.0,0.0));
#371=AXIS2_PLACEMENT_3D('',#368,#369,#370);
#372=CIRCLE('',#371,3.560000000000001);
#373=EDGE_CURVE('',#367,#367,#372,.T.);
#374=ORIENTED_EDGE('',*,*,#373,.F.);
#375=EDGE_LOOP('',(#374));
#376=FACE_OUTER_BOUND('',#375,.T.);
#377=ORIENTED_EDGE('',*,*,#344,.T.);
#378=EDGE_LOOP('',(#377));
#379=FACE_BOUND('',#378,.T.);
#380=ADVANCED_FACE('',(#376,#379),#365,.F.);
#381=CARTESIAN_POINT('',(0.0,0.0,0.0));
#382=DIRECTION('',(0.0,0.0,1.0));
#383=DIRECTION('',(-1.0,0.0,0.0));
#384=AXIS2_PLACEMENT_3D('',#381,#382,#383);
#385=CYLINDRICAL_SURFACE('',#384,3.560000000000001);
#386=CARTESIAN_POINT('',(0.0,-3.560000000000001,1.397000000000000));
#387=VERTEX_POINT('',#386);
#388=CARTESIAN_POINT('',(0.0,0.0,1.397000000000000));
#389=DIRECTION('',(0.0,0.0,1.0));
#390=DIRECTION('',(-1.0,0.0,0.0));
#391=AXIS2_PLACEMENT_3D('',#388,#389,#390);
#392=CIRCLE('',#391,3.560000000000001);
#393=EDGE_CURVE('',#387,#387,#392,.T.);
#394=ORIENTED_EDGE('',*,*,#393,.T.);
#395=EDGE_LOOP('',(#394));
#396=FACE_OUTER_BOUND('',#395,.T.);
#397=ORIENTED_EDGE('',*,*,#373,.T.);
#398=EDGE_LOOP('',(#397));
#399=FACE_BOUND('',#398,.T.);
#400=ADVANCED_FACE('',(#396,#399),#385,.T.);
#401=CARTESIAN_POINT('',(0.0,0.0,1.016000000000000));
#402=DIRECTION('',(0.0,0.0,-1.0));
#403=DIRECTION('',(0.0,-1.0,0.0));
#404=AXIS2_PLACEMENT_3D('',#401,#402,#403);
#405=CYLINDRICAL_SURFACE('',#404,3.052000000000001);
#406=CARTESIAN_POINT('',(0.0,-3.052000000000001,1.397000000000000));
#407=VERTEX_POINT('',#406);
#408=CARTESIAN_POINT('',(0.0,0.0,1.397000000000000));
#409=DIRECTION('',(0.0,0.0,-1.0));
#410=DIRECTION('',(0.0,-1.0,0.0));
#411=AXIS2_PLACEMENT_3D('',#408,#409,#410);
#412=CIRCLE('',#411,3.052000000000001);
#413=EDGE_CURVE('',#407,#407,#412,.T.);
#414=ORIENTED_EDGE('',*,*,#413,.T.);
#415=EDGE_LOOP('',(#414));
#416=FACE_OUTER_BOUND('',#415,.T.);
#417=CARTESIAN_POINT('',(0.0,-3.052000000000001,0.635000000000000));
#418=VERTEX_POINT('',#417);
#419=CARTESIAN_POINT('',(0.0,0.0,0.635000000000000));
#420=DIRECTION('',(0.0,0.0,-1.0));
#421=DIRECTION('',(0.0,-1.0,0.0));
#422=AXIS2_PLACEMENT_3D('',#419,#420,#421);
#423=CIRCLE('',#422,3.052000000000001);
#424=EDGE_CURVE('',#418,#418,#423,.T.);
#425=ORIENTED_EDGE('',*,*,#424,.F.);
#426=EDGE_LOOP('',(#425));
#427=FACE_BOUND('',#426,.T.);
#428=ADVANCED_FACE('',(#416,#427),#405,.T.);
#429=CARTESIAN_POINT('',(0.0,-3.306000000000001,1.397000000000000));
#430=DIRECTION('',(0.0,0.0,1.0));
#431=DIRECTION('',(1.0,0.0,0.0));
#432=AXIS2_PLACEMENT_3D('',#429,#430,#431);
#433=PLANE('',#432);
#434=ORIENTED_EDGE('',*,*,#393,.F.);
#435=EDGE_LOOP('',(#434));
#436=FACE_OUTER_BOUND('',#435,.T.);
#437=ORIENTED_EDGE('',*,*,#413,.F.);
#438=EDGE_LOOP('',(#437));
#439=FACE_BOUND('',#438,.T.);
#440=ADVANCED_FACE('',(#436,#439),#433,.F.);
#441=CARTESIAN_POINT('',(-1.133353E-015,2.498002E-015,0.635000000000000));
#442=DIRECTION('',(0.0,0.0,1.0));
#443=DIRECTION('',(1.0,0.0,0.0));
#444=AXIS2_PLACEMENT_3D('',#441,#442,#443);
#445=PLANE('',#444);
#446=CARTESIAN_POINT('',(-2.280533563299026,3.950000000000001,0.635000000000000));
#447=VERTEX_POINT('',#446);
#448=CARTESIAN_POINT('',(2.280533563299021,3.950000000000002,0.635000000000000));
#449=VERTEX_POINT('',#448);
#450=CARTESIAN_POINT('',(-2.280533563299026,3.950000000000001,0.635000000000000));
#451=DIRECTION('',(1.0,0.0,0.0));
#452=VECTOR('',#451,4.561067126598047);
#453=LINE('',#450,#452);
#454=EDGE_CURVE('',#447,#449,#453,.T.);
#455=ORIENTED_EDGE('',*,*,#454,.F.);
#456=CARTESIAN_POINT('',(-4.561067126598045,-1.586046E-016,0.635000000000000));
#457=VERTEX_POINT('',#456);
#458=CARTESIAN_POINT('',(-4.561067126598045,-8.881784E-016,0.635000000000000));
#459=DIRECTION('',(0.499999999999999,0.866025403784439,0.0));
#460=VECTOR('',#459,4.561067126598045);
#461=LINE('',#458,#460);
#462=EDGE_CURVE('',#457,#447,#461,.T.);
#463=ORIENTED_EDGE('',*,*,#462,.F.);
#464=CARTESIAN_POINT('',(-2.280533563299021,-3.949999999999998,0.635000000000000));
#465=VERTEX_POINT('',#464);
#466=CARTESIAN_POINT('',(-2.280533563299021,-3.949999999999999,0.635000000000000));
#467=DIRECTION('',(-0.500000000000001,0.866025403784438,0.0));
#468=VECTOR('',#467,4.561067126598044);
#469=LINE('',#466,#468);
#470=EDGE_CURVE('',#465,#457,#469,.T.);
#471=ORIENTED_EDGE('',*,*,#470,.F.);
#472=CARTESIAN_POINT('',(2.280533563299021,-3.949999999999998,0.635000000000000));
#473=VERTEX_POINT('',#472);
#474=CARTESIAN_POINT('',(2.280533563299022,-3.949999999999998,0.635000000000000));
#475=DIRECTION('',(-1.0,0.0,0.0));
#476=VECTOR('',#475,4.561067126598043);
#477=LINE('',#474,#476);
#478=EDGE_CURVE('',#473,#465,#477,.T.);
#479=ORIENTED_EDGE('',*,*,#478,.F.);
#480=CARTESIAN_POINT('',(4.561067126598043,2.705757E-015,0.635000000000000));
#481=VERTEX_POINT('',#480);
#482=CARTESIAN_POINT('',(4.561067126598043,2.664535E-015,0.635000000000000));
#483=DIRECTION('',(-0.500000000000000,-0.866025403784439,0.0));
#484=VECTOR('',#483,4.561067126598044);
#485=LINE('',#482,#484);
#486=EDGE_CURVE('',#481,#473,#485,.T.);
#487=ORIENTED_EDGE('',*,*,#486,.F.);
#488=CARTESIAN_POINT('',(2.280533563299021,3.950000000000002,0.635000000000000));
#489=DIRECTION('',(0.500000000000000,-0.866025403784439,0.0));
#490=VECTOR('',#489,4.561067126598043);
#491=LINE('',#488,#490);
#492=EDGE_CURVE('',#449,#481,#491,.T.);
#493=ORIENTED_EDGE('',*,*,#492,.F.);
#494=EDGE_LOOP('',(#455,#463,#471,#479,#487,#493));
#495=FACE_OUTER_BOUND('',#494,.T.);
#496=ORIENTED_EDGE('',*,*,#424,.T.);
#497=EDGE_LOOP('',(#496));
#498=FACE_BOUND('',#497,.T.);
#499=ADVANCED_FACE('',(#495,#498),#445,.T.);
#500=CARTESIAN_POINT('',(-2.280533563299026,3.950000000000001,0.0));
#501=DIRECTION('',(0.0,1.0,0.0));
#502=DIRECTION('',(0.0,0.0,1.0));
#503=AXIS2_PLACEMENT_3D('',#500,#501,#502);
#504=PLANE('',#503);
#505=ORIENTED_EDGE('',*,*,#454,.T.);
#506=CARTESIAN_POINT('',(2.280533563299021,3.950000000000002,0.0));
#507=VERTEX_POINT('',#506);
#508=CARTESIAN_POINT('',(2.280533563299021,3.950000000000002,0.0));
#509=DIRECTION('',(0.0,0.0,1.0));
#510=VECTOR('',#509,0.635000000000000);
#511=LINE('',#508,#510);
#512=EDGE_CURVE('',#507,#449,#511,.T.);
#513=ORIENTED_EDGE('',*,*,#512,.F.);
#514=CARTESIAN_POINT('',(-2.280533563299026,3.950000000000001,0.0));
#515=VERTEX_POINT('',#514);
#516=CARTESIAN_POINT('',(2.280533563299021,3.950000000000002,0.0));
#517=DIRECTION('',(-1.0,0.0,0.0));
#518=VECTOR('',#517,4.561067126598047);
#519=LINE('',#516,#518);
#520=EDGE_CURVE('',#507,#515,#519,.T.);
#521=ORIENTED_EDGE('',*,*,#520,.T.);
#522=CARTESIAN_POINT('',(-2.280533563299026,3.950000000000001,0.0));
#523=DIRECTION('',(0.0,0.0,1.0));
#524=VECTOR('',#523,0.635000000000000);
#525=LINE('',#522,#524);
#526=EDGE_CURVE('',#515,#447,#525,.T.);
#527=ORIENTED_EDGE('',*,*,#526,.T.);
#528=EDGE_LOOP('',(#505,#513,#521,#527));
#529=FACE_OUTER_BOUND('',#528,.T.);
#530=ADVANCED_FACE('',(#529),#504,.T.);
#531=CARTESIAN_POINT('',(2.280533563299021,3.950000000000002,0.0));
#532=DIRECTION('',(0.866025403784439,0.500000000000000,0.0));
#533=DIRECTION('',(0.0,0.0,-1.0));
#534=AXIS2_PLACEMENT_3D('',#531,#532,#533);
#535=PLANE('',#534);
#536=ORIENTED_EDGE('',*,*,#492,.T.);
#537=CARTESIAN_POINT('',(4.561067126598043,2.705757E-015,0.0));
#538=VERTEX_POINT('',#537);
#539=CARTESIAN_POINT('',(4.561067126598043,2.705757E-015,0.0));
#540=DIRECTION('',(0.0,0.0,1.0));
#541=VECTOR('',#540,0.635000000000000);
#542=LINE('',#539,#541);
#543=EDGE_CURVE('',#538,#481,#542,.T.);
#544=ORIENTED_EDGE('',*,*,#543,.F.);
#545=CARTESIAN_POINT('',(4.561067126598043,2.705757E-015,0.0));
#546=DIRECTION('',(-0.500000000000000,0.866025403784439,0.0));
#547=VECTOR('',#546,4.561067126598043);
#548=LINE('',#545,#547);
#549=EDGE_CURVE('',#538,#507,#548,.T.);
#550=ORIENTED_EDGE('',*,*,#549,.T.);
#551=ORIENTED_EDGE('',*,*,#512,.T.);
#552=EDGE_LOOP('',(#536,#544,#550,#551));
#553=FACE_OUTER_BOUND('',#552,.T.);
#554=ADVANCED_FACE('',(#553),#535,.T.);
#555=CARTESIAN_POINT('',(4.561067126598043,2.705757E-015,0.0));
#556=DIRECTION('',(0.866025403784439,-0.500000000000000,0.0));
#557=DIRECTION('',(0.0,0.0,-1.0));
#558=AXIS2_PLACEMENT_3D('',#555,#556,#557);
#559=PLANE('',#558);
#560=ORIENTED_EDGE('',*,*,#486,.T.);
#561=CARTESIAN_POINT('',(2.280533563299021,-3.949999999999998,0.0));
#562=VERTEX_POINT('',#561);
#563=CARTESIAN_POINT('',(2.280533563299021,-3.949999999999998,0.0));
#564=DIRECTION('',(0.0,0.0,1.0));
#565=VECTOR('',#564,0.635000000000000);
#566=LINE('',#563,#565);
#567=EDGE_CURVE('',#562,#473,#566,.T.);
#568=ORIENTED_EDGE('',*,*,#567,.F.);
#569=CARTESIAN_POINT('',(2.280533563299021,-3.949999999999998,0.0));
#570=DIRECTION('',(0.500000000000000,0.866025403784439,0.0));
#571=VECTOR('',#570,4.561067126598044);
#572=LINE('',#569,#571);
#573=EDGE_CURVE('',#562,#538,#572,.T.);
#574=ORIENTED_EDGE('',*,*,#573,.T.);
#575=ORIENTED_EDGE('',*,*,#543,.T.);
#576=EDGE_LOOP('',(#560,#568,#574,#575));
#577=FACE_OUTER_BOUND('',#576,.T.);
#578=ADVANCED_FACE('',(#577),#559,.T.);
#579=CARTESIAN_POINT('',(2.280533563299021,-3.949999999999998,0.0));
#580=DIRECTION('',(0.0,-1.0,0.0));
#581=DIRECTION('',(0.0,0.0,-1.0));
#582=AXIS2_PLACEMENT_3D('',#579,#580,#581);
#583=PLANE('',#582);
#584=ORIENTED_EDGE('',*,*,#478,.T.);
#585=CARTESIAN_POINT('',(-2.280533563299021,-3.949999999999998,0.0));
#586=VERTEX_POINT('',#585);
#587=CARTESIAN_POINT('',(-2.280533563299021,-3.949999999999998,0.0));
#588=DIRECTION('',(0.0,0.0,1.0));
#589=VECTOR('',#588,0.635000000000000);
#590=LINE('',#587,#589);
#591=EDGE_CURVE('',#586,#465,#590,.T.);
#592=ORIENTED_EDGE('',*,*,#591,.F.);
#593=CARTESIAN_POINT('',(-2.280533563299021,-3.949999999999998,0.0));
#594=DIRECTION('',(1.0,0.0,0.0));
#595=VECTOR('',#594,4.561067126598043);
#596=LINE('',#593,#595);
#597=EDGE_CURVE('',#586,#562,#596,.T.);
#598=ORIENTED_EDGE('',*,*,#597,.T.);
#599=ORIENTED_EDGE('',*,*,#567,.T.);
#600=EDGE_LOOP('',(#584,#592,#598,#599));
#601=FACE_OUTER_BOUND('',#600,.T.);
#602=ADVANCED_FACE('',(#601),#583,.T.);
#603=CARTESIAN_POINT('',(-2.280533563299021,-3.949999999999998,0.0));
#604=DIRECTION('',(-0.866025403784438,-0.500000000000001,0.0));
#605=DIRECTION('',(0.0,0.0,1.0));
#606=AXIS2_PLACEMENT_3D('',#603,#604,#605);
#607=PLANE('',#606);
#608=ORIENTED_EDGE('',*,*,#470,.T.);
#609=CARTESIAN_POINT('',(-4.561067126598045,-1.586046E-016,0.0));
#610=VERTEX_POINT('',#609);
#611=CARTESIAN_POINT('',(-4.561067126598045,-1.586046E-016,0.0));
#612=DIRECTION('',(0.0,0.0,1.0));
#613=VECTOR('',#612,0.635000000000000);
#614=LINE('',#611,#613);
#615=EDGE_CURVE('',#610,#457,#614,.T.);
#616=ORIENTED_EDGE('',*,*,#615,.F.);
#617=CARTESIAN_POINT('',(-4.561067126598045,-1.586046E-016,0.0));
#618=DIRECTION('',(0.500000000000001,-0.866025403784438,0.0));
#619=VECTOR('',#618,4.561067126598044);
#620=LINE('',#617,#619);
#621=EDGE_CURVE('',#610,#586,#620,.T.);
#622=ORIENTED_EDGE('',*,*,#621,.T.);
#623=ORIENTED_EDGE('',*,*,#591,.T.);
#624=EDGE_LOOP('',(#608,#616,#622,#623));
#625=FACE_OUTER_BOUND('',#624,.T.);
#626=ADVANCED_FACE('',(#625),#607,.T.);
#627=CARTESIAN_POINT('',(-4.561067126598045,-1.586046E-016,0.0));
#628=DIRECTION('',(-0.866025403784439,0.500000000000000,0.0));
#629=DIRECTION('',(0.0,0.0,1.0));
#630=AXIS2_PLACEMENT_3D('',#627,#628,#629);
#631=PLANE('',#630);
#632=ORIENTED_EDGE('',*,*,#462,.T.);
#633=ORIENTED_EDGE('',*,*,#526,.F.);
#634=CARTESIAN_POINT('',(-2.280533563299026,3.950000000000001,0.0));
#635=DIRECTION('',(-0.499999999999999,-0.866025403784439,0.0));
#636=VECTOR('',#635,4.561067126598045);
#637=LINE('',#634,#636);
#638=EDGE_CURVE('',#515,#610,#637,.T.);
#639=ORIENTED_EDGE('',*,*,#638,.T.);
#640=ORIENTED_EDGE('',*,*,#615,.T.);
#641=EDGE_LOOP('',(#632,#633,#639,#640));
#642=FACE_OUTER_BOUND('',#641,.T.);
#643=ADVANCED_FACE('',(#642),#631,.T.);
#644=CARTESIAN_POINT('',(0.0,0.0,0.0));
#645=DIRECTION('',(0.0,0.0,-1.0));
#646=DIRECTION('',(-1.0,0.0,0.0));
#647=AXIS2_PLACEMENT_3D('',#644,#645,#646);
#648=PLANE('',#647);
#649=ORIENTED_EDGE('',*,*,#638,.F.);
#650=ORIENTED_EDGE('',*,*,#520,.F.);
#651=ORIENTED_EDGE('',*,*,#549,.F.);
#652=ORIENTED_EDGE('',*,*,#573,.F.);
#653=ORIENTED_EDGE('',*,*,#597,.F.);
#654=ORIENTED_EDGE('',*,*,#621,.F.);
#655=EDGE_LOOP('',(#649,#650,#651,#652,#653,#654));
#656=FACE_OUTER_BOUND('',#655,.T.);
#657=ORIENTED_EDGE('',*,*,#233,.T.);
#658=EDGE_LOOP('',(#657));
#659=FACE_BOUND('',#658,.T.);
#660=ADVANCED_FACE('',(#656,#659),#648,.T.);
#661=CLOSED_SHELL('',(#140,#160,#180,#200,#220,#240,#268,#280,#300,#320,#348,#360,#380,#400,#428,#440,#499,#530,#554,#578,#602,#626,#643,#660));
#662=MANIFOLD_SOLID_BREP('Solid1',#661);
#663=DRAUGHTING_PRE_DEFINED_COLOUR('white');
#664=FILL_AREA_STYLE_COLOUR('Chrome',#663);
#665=FILL_AREA_STYLE('Chrome',(#664));
#666=SURFACE_STYLE_FILL_AREA(#665);
#667=SURFACE_SIDE_STYLE('Chrome',(#666));
#668=SURFACE_STYLE_USAGE(.BOTH.,#667);
#669=PRESENTATION_STYLE_ASSIGNMENT((#668));
#670=STYLED_ITEM('',(#669),#662);
#671=MECHANICAL_DESIGN_GEOMETRIC_PRESENTATION_REPRESENTATION('',(#670),#42);
#672=ADVANCED_BREP_SHAPE_REPRESENTATION('ABSR',(#662),#81);
#673=SHAPE_REPRESENTATION_RELATIONSHIP('SRR','None',#672,#86);
#674=AXIS2_PLACEMENT_3D('',#675,#676,#677);
#675=CARTESIAN_POINT('',(0.0,0.0,0.0));
#676=DIRECTION('',(0.0,0.0,1.0));
#677=DIRECTION('',(1.0,0.0,0.0));
#678=NEXT_ASSEMBLY_USAGE_OCCURRENCE('BSO-M4-6 PEM BLIND STANDOFF:1','BSO-M4-6 PEM BLIND STANDOFF:1','BSO-M4-6 PEM BLIND STANDOFF:1',#12,#57,'BSO-M4-6 PEM BLIND STANDOFF:1');
#679=PRODUCT_DEFINITION_SHAPE('BSO-M4-6 PEM BLIND STANDOFF:1','BSO-M4-6 PEM BLIND STANDOFF:1',#678);
#680=ITEM_DEFINED_TRANSFORMATION('BSO-M4-6 PEM BLIND STANDOFF:1','BSO-M4-6 PEM BLIND STANDOFF:1',#82,#674);
#684=(REPRESENTATION_RELATIONSHIP('BSO-M4-6 PEM BLIND STANDOFF:1','BSO-M4-6 PEM BLIND STANDOFF:1',#86,#47)REPRESENTATION_RELATIONSHIP_WITH_TRANSFORMATION(#680)SHAPE_REPRESENTATION_RELATIONSHIP());
#685=CONTEXT_DEPENDENT_SHAPE_REPRESENTATION(#684,#679);
ENDSEC;
END-ISO-10303-21;
