ISO-10303-21;
HEADER;
/****************************************************************
 * Generated by software with PDE/Lib inside                    *
 * PDElib Version v51a, created Thu 01/14/2010                  *
 * ITI Transcendata (http://www.transcendata.com/)              *
 ****************************************************************/
FILE_DESCRIPTION((''),'2;1');
FILE_NAME('S:\\Engineering\\Public\\Projects\\FlatPack 2\\FP2 19in 600 15 INCH DEEP\\Workspace\\111junk\\WASHER\\FLAT\\METRIC\\WHR FLAT M2.5 REG.stp','2012-07-02T11:45:13',('stlaus'),(''),'Autodesk Inventor 2011','Autodesk Inventor 2011','');
FILE_SCHEMA(('AUTOMOTIVE_DESIGN { 1 0 10303 214 1 1 1 1 }'));
ENDSEC;
DATA;
#5=APPLICATION_CONTEXT('automotive design');
#6=APPLICATION_PROTOCOL_DEFINITION('International Standard','automotive_design',2001,#5);
#7=PRODUCT_CONTEXT('',#5,'mechanical');
#8=PRODUCT('Assembly1','Assembly1',$,(#7));
#9=PRODUCT_RELATED_PRODUCT_CATEGORY('part',$,(#8));
#10=PRODUCT_DEFINITION_FORMATION('',$,#8);
#11=PRODUCT_DEFINITION_CONTEXT('part definition',#5,'design');
#12=PRODUCT_DEFINITION('',$,#10,#11);
#18=(NAMED_UNIT(*)PLANE_ANGLE_UNIT()SI_UNIT($,.RADIAN.));
#19=DIMENSIONAL_EXPONENTS(0.0,0.0,0.0,0.0,0.0,0.0,0.0);
#20=PLANE_ANGLE_MEASURE_WITH_UNIT(PLANE_ANGLE_MEASURE(0.017453292500000),#18);
#24=(CONVERSION_BASED_UNIT('DEGREE',#20)NAMED_UNIT(#19)PLANE_ANGLE_UNIT());
#28=(NAMED_UNIT(*)SI_UNIT($,.STERADIAN.)SOLID_ANGLE_UNIT());
#32=(LENGTH_UNIT()NAMED_UNIT(*)SI_UNIT(.CENTI.,.METRE.));
#33=DIMENSIONAL_EXPONENTS(1.0,0.0,0.0,0.0,0.0,0.0,0.0);
#34=LENGTH_MEASURE_WITH_UNIT(LENGTH_MEASURE(2.540000000000000),#32);
#38=(CONVERSION_BASED_UNIT('INCH',#34)LENGTH_UNIT()NAMED_UNIT(#33));
#40=UNCERTAINTY_MEASURE_WITH_UNIT(LENGTH_MEASURE(0.000393700787402),#38,'DISTANCE_ACCURACY_VALUE','');
#42=(GEOMETRIC_REPRESENTATION_CONTEXT(3)GLOBAL_UNCERTAINTY_ASSIGNED_CONTEXT((#40))GLOBAL_UNIT_ASSIGNED_CONTEXT((#24,#28,#38))REPRESENTATION_CONTEXT('None','None'));
#43=AXIS2_PLACEMENT_3D('',#44,#45,#46);
#44=CARTESIAN_POINT('',(0.0,0.0,0.0));
#45=DIRECTION('',(0.0,0.0,1.0));
#46=DIRECTION('',(1.0,0.0,0.0));
#47=SHAPE_REPRESENTATION('',(#43,#206),#42);
#48=PRODUCT_DEFINITION_SHAPE('','',#12);
#49=SHAPE_DEFINITION_REPRESENTATION(#48,#47);
#50=APPLICATION_CONTEXT('automotive design');
#51=APPLICATION_PROTOCOL_DEFINITION('International Standard','automotive_design',2001,#50);
#52=PRODUCT_CONTEXT('',#50,'mechanical');
#53=PRODUCT('Washer_M2.5Regular - Washer_M2.5Regular','Washer_M2.5Regular - Washer_M2.5Regular',$,(#52));
#54=PRODUCT_RELATED_PRODUCT_CATEGORY('part',$,(#53));
#55=PRODUCT_DEFINITION_FORMATION('',$,#53);
#56=PRODUCT_DEFINITION_CONTEXT('part definition',#50,'design');
#57=PRODUCT_DEFINITION('',$,#55,#56);
#63=(NAMED_UNIT(*)PLANE_ANGLE_UNIT()SI_UNIT($,.RADIAN.));
#64=DIMENSIONAL_EXPONENTS(0.0,0.0,0.0,0.0,0.0,0.0,0.0);
#65=PLANE_ANGLE_MEASURE_WITH_UNIT(PLANE_ANGLE_MEASURE(0.017453292500000),#63);
#69=(CONVERSION_BASED_UNIT('DEGREE',#65)NAMED_UNIT(#64)PLANE_ANGLE_UNIT());
#73=(NAMED_UNIT(*)SI_UNIT($,.STERADIAN.)SOLID_ANGLE_UNIT());
#77=(LENGTH_UNIT()NAMED_UNIT(*)SI_UNIT(.MILLI.,.METRE.));
#79=UNCERTAINTY_MEASURE_WITH_UNIT(LENGTH_MEASURE(0.010000000000000),#77,'DISTANCE_ACCURACY_VALUE','');
#81=(GEOMETRIC_REPRESENTATION_CONTEXT(3)GLOBAL_UNCERTAINTY_ASSIGNED_CONTEXT((#79))GLOBAL_UNIT_ASSIGNED_CONTEXT((#69,#73,#77))REPRESENTATION_CONTEXT('None','None'));
#82=AXIS2_PLACEMENT_3D('',#83,#84,#85);
#83=CARTESIAN_POINT('',(0.0,0.0,0.0));
#84=DIRECTION('',(0.0,0.0,1.0));
#85=DIRECTION('',(1.0,0.0,0.0));
#86=SHAPE_REPRESENTATION('',(#82),#81);
#87=PRODUCT_DEFINITION_SHAPE('','',#57);
#88=SHAPE_DEFINITION_REPRESENTATION(#87,#86);
#94=(NAMED_UNIT(*)PLANE_ANGLE_UNIT()SI_UNIT($,.RADIAN.));
#95=DIMENSIONAL_EXPONENTS(0.0,0.0,0.0,0.0,0.0,0.0,0.0);
#96=PLANE_ANGLE_MEASURE_WITH_UNIT(PLANE_ANGLE_MEASURE(0.017453292500000),#94);
#100=(CONVERSION_BASED_UNIT('DEGREE',#96)NAMED_UNIT(#95)PLANE_ANGLE_UNIT());
#104=(NAMED_UNIT(*)SI_UNIT($,.STERADIAN.)SOLID_ANGLE_UNIT());
#108=(LENGTH_UNIT()NAMED_UNIT(*)SI_UNIT(.MILLI.,.METRE.));
#110=UNCERTAINTY_MEASURE_WITH_UNIT(LENGTH_MEASURE(0.000001000000000),#108,'DISTANCE_ACCURACY_VALUE','');
#112=(GEOMETRIC_REPRESENTATION_CONTEXT(3)GLOBAL_UNCERTAINTY_ASSIGNED_CONTEXT((#110))GLOBAL_UNIT_ASSIGNED_CONTEXT((#100,#104,#108))REPRESENTATION_CONTEXT('','3D'));
#113=CARTESIAN_POINT('',(0.0,0.0,0.0));
#114=DIRECTION('',(0.0,0.0,1.0));
#115=DIRECTION('',(-1.0,0.0,0.0));
#116=AXIS2_PLACEMENT_3D('',#113,#114,#115);
#117=CYLINDRICAL_SURFACE('',#116,1.045000000000000);
#118=CARTESIAN_POINT('',(1.045000000000000,1.279756E-016,0.900000000000000));
#119=VERTEX_POINT('',#118);
#120=CARTESIAN_POINT('',(0.0,0.0,0.900000000000000));
#121=DIRECTION('',(0.0,0.0,-1.0));
#122=DIRECTION('',(-1.0,0.0,0.0));
#123=AXIS2_PLACEMENT_3D('',#120,#121,#122);
#124=CIRCLE('',#123,1.045000000000000);
#125=EDGE_CURVE('',#119,#119,#124,.T.);
#126=ORIENTED_EDGE('',*,*,#125,.F.);
#127=EDGE_LOOP('',(#126));
#128=FACE_OUTER_BOUND('',#127,.T.);
#129=CARTESIAN_POINT('',(1.045000000000000,1.279756E-016,0.0));
#130=VERTEX_POINT('',#129);
#131=CARTESIAN_POINT('',(0.0,0.0,0.0));
#132=DIRECTION('',(0.0,0.0,1.0));
#133=DIRECTION('',(-1.0,0.0,0.0));
#134=AXIS2_PLACEMENT_3D('',#131,#132,#133);
#135=CIRCLE('',#134,1.045000000000000);
#136=EDGE_CURVE('',#130,#130,#135,.T.);
#137=ORIENTED_EDGE('',*,*,#136,.F.);
#138=EDGE_LOOP('',(#137));
#139=FACE_BOUND('',#138,.T.);
#140=ADVANCED_FACE('',(#128,#139),#117,.F.);
#141=CARTESIAN_POINT('',(0.0,0.0,0.0));
#142=DIRECTION('',(0.0,0.0,1.0));
#143=DIRECTION('',(-1.0,0.0,0.0));
#144=AXIS2_PLACEMENT_3D('',#141,#142,#143);
#145=CYLINDRICAL_SURFACE('',#144,4.0);
#146=CARTESIAN_POINT('',(4.0,4.898587E-016,0.900000000000000));
#147=VERTEX_POINT('',#146);
#148=CARTESIAN_POINT('',(0.0,0.0,0.900000000000000));
#149=DIRECTION('',(0.0,0.0,-1.0));
#150=DIRECTION('',(-1.0,0.0,0.0));
#151=AXIS2_PLACEMENT_3D('',#148,#149,#150);
#152=CIRCLE('',#151,4.0);
#153=EDGE_CURVE('',#147,#147,#152,.T.);
#154=ORIENTED_EDGE('',*,*,#153,.T.);
#155=EDGE_LOOP('',(#154));
#156=FACE_OUTER_BOUND('',#155,.T.);
#157=CARTESIAN_POINT('',(4.0,4.898587E-016,0.0));
#158=VERTEX_POINT('',#157);
#159=CARTESIAN_POINT('',(0.0,0.0,0.0));
#160=DIRECTION('',(0.0,0.0,-1.0));
#161=DIRECTION('',(-1.0,0.0,0.0));
#162=AXIS2_PLACEMENT_3D('',#159,#160,#161);
#163=CIRCLE('',#162,4.0);
#164=EDGE_CURVE('',#158,#158,#163,.T.);
#165=ORIENTED_EDGE('',*,*,#164,.F.);
#166=EDGE_LOOP('',(#165));
#167=FACE_BOUND('',#166,.T.);
#168=ADVANCED_FACE('',(#156,#167),#145,.T.);
#169=CARTESIAN_POINT('',(0.0,0.0,0.900000000000000));
#170=DIRECTION('',(0.0,0.0,-1.0));
#171=DIRECTION('',(-1.0,0.0,0.0));
#172=AXIS2_PLACEMENT_3D('',#169,#170,#171);
#173=PLANE('',#172);
#174=ORIENTED_EDGE('',*,*,#153,.F.);
#175=EDGE_LOOP('',(#174));
#176=FACE_OUTER_BOUND('',#175,.T.);
#177=ORIENTED_EDGE('',*,*,#125,.T.);
#178=EDGE_LOOP('',(#177));
#179=FACE_BOUND('',#178,.T.);
#180=ADVANCED_FACE('',(#176,#179),#173,.F.);
#181=CARTESIAN_POINT('',(0.0,0.0,0.0));
#182=DIRECTION('',(0.0,0.0,-1.0));
#183=DIRECTION('',(-1.0,0.0,0.0));
#184=AXIS2_PLACEMENT_3D('',#181,#182,#183);
#185=PLANE('',#184);
#186=ORIENTED_EDGE('',*,*,#164,.T.);
#187=EDGE_LOOP('',(#186));
#188=FACE_OUTER_BOUND('',#187,.T.);
#189=ORIENTED_EDGE('',*,*,#136,.T.);
#190=EDGE_LOOP('',(#189));
#191=FACE_BOUND('',#190,.T.);
#192=ADVANCED_FACE('',(#188,#191),#185,.T.);
#193=CLOSED_SHELL('',(#140,#168,#180,#192));
#194=MANIFOLD_SOLID_BREP('Solid1',#193);
#195=COLOUR_RGB('Zinc',0.678431391716003,0.768627464771271,0.811764717102051);
#196=FILL_AREA_STYLE_COLOUR('Zinc',#195);
#197=FILL_AREA_STYLE('Zinc',(#196));
#198=SURFACE_STYLE_FILL_AREA(#197);
#199=SURFACE_SIDE_STYLE('Zinc',(#198));
#200=SURFACE_STYLE_USAGE(.BOTH.,#199);
#201=PRESENTATION_STYLE_ASSIGNMENT((#200));
#202=STYLED_ITEM('',(#201),#194);
#203=MECHANICAL_DESIGN_GEOMETRIC_PRESENTATION_REPRESENTATION('',(#202),#42);
#204=ADVANCED_BREP_SHAPE_REPRESENTATION('ABSR',(#194),#81);
#205=SHAPE_REPRESENTATION_RELATIONSHIP('SRR','None',#204,#86);
#206=AXIS2_PLACEMENT_3D('',#207,#208,#209);
#207=CARTESIAN_POINT('',(0.0,0.0,0.0));
#208=DIRECTION('',(0.0,0.0,1.0));
#209=DIRECTION('',(1.0,0.0,0.0));
#210=NEXT_ASSEMBLY_USAGE_OCCURRENCE('Washer_M2.5Regular - Washer_M2.5Regular:1','Washer_M2.5Regular - Washer_M2.5Regular:1','Washer_M2.5Regular - Washer_M2.5Regular:1',#12,#57,'Washer_M2.5Regular - Washer_M2.5Regular:1');
#211=PRODUCT_DEFINITION_SHAPE('Washer_M2.5Regular - Washer_M2.5Regular:1','Washer_M2.5Regular - Washer_M2.5Regular:1',#210);
#212=ITEM_DEFINED_TRANSFORMATION('Washer_M2.5Regular - Washer_M2.5Regular:1','Washer_M2.5Regular - Washer_M2.5Regular:1',#82,#206);
#216=(REPRESENTATION_RELATIONSHIP('Washer_M2.5Regular - Washer_M2.5Regular:1','Washer_M2.5Regular - Washer_M2.5Regular:1',#86,#47)REPRESENTATION_RELATIONSHIP_WITH_TRANSFORMATION(#212)SHAPE_REPRESENTATION_RELATIONSHIP());
#217=CONTEXT_DEPENDENT_SHAPE_REPRESENTATION(#216,#211);
ENDSEC;
END-ISO-10303-21;
