ISO-10303-21;
HEADER;
FILE_DESCRIPTION(('FreeCAD Model'),'2;1');
FILE_NAME('Open CASCADE Shape Model','2024-04-09T21:18:09',(''),(''),
  'Open CASCADE STEP processor 7.6','FreeCAD','Unknown');
FILE_SCHEMA(('AUTOMOTIVE_DESIGN { 1 0 10303 214 1 1 1 1 }'));
ENDSEC;
DATA;
#1 = APPLICATION_PROTOCOL_DEFINITION('international standard',
  'automotive_design',2000,#2);
#2 = APPLICATION_CONTEXT(
  'core data for automotive mechanical design processes');
#3 = SHAPE_DEFINITION_REPRESENTATION(#4,#10);
#4 = PRODUCT_DEFINITION_SHAPE('','',#5);
#5 = PRODUCT_DEFINITION('design','',#6,#9);
#6 = PRODUCT_DEFINITION_FORMATION('','',#7);
#7 = PRODUCT('Chamfer','Chamfer','',(#8));
#8 = PRODUCT_CONTEXT('',#2,'mechanical');
#9 = PRODUCT_DEFINITION_CONTEXT('part definition',#2,'design');
#10 = ADVANCED_BREP_SHAPE_REPRESENTATION('',(#11,#15),#387);
#11 = AXIS2_PLACEMENT_3D('',#12,#13,#14);
#12 = CARTESIAN_POINT('',(0.,0.,0.));
#13 = DIRECTION('',(0.,0.,1.));
#14 = DIRECTION('',(1.,0.,-0.));
#15 = MANIFOLD_SOLID_BREP('',#16);
#16 = CLOSED_SHELL('',(#17,#50,#75,#100,#120,#140,#165,#190,#210,#230,
    #255,#280,#300,#320,#345,#370));
#17 = ADVANCED_FACE('',(#18),#45,.F.);
#18 = FACE_BOUND('',#19,.F.);
#19 = EDGE_LOOP('',(#20,#30,#37,#38));
#20 = ORIENTED_EDGE('',*,*,#21,.F.);
#21 = EDGE_CURVE('',#22,#24,#26,.T.);
#22 = VERTEX_POINT('',#23);
#23 = CARTESIAN_POINT('',(6.383782391595E-16,8.5,2.25));
#24 = VERTEX_POINT('',#25);
#25 = CARTESIAN_POINT('',(3.136380044566E-15,8.5,-2.25));
#26 = LINE('',#27,#28);
#27 = CARTESIAN_POINT('',(-1.942890293094E-15,8.5,2.5));
#28 = VECTOR('',#29,1.);
#29 = DIRECTION('',(7.771561172376E-16,-1.110223024625E-16,-1.));
#30 = ORIENTED_EDGE('',*,*,#31,.T.);
#31 = EDGE_CURVE('',#22,#22,#32,.T.);
#32 = CIRCLE('',#33,8.5);
#33 = AXIS2_PLACEMENT_3D('',#34,#35,#36);
#34 = CARTESIAN_POINT('',(-1.249000902703E-15,8.743006318923E-16,2.25));
#35 = DIRECTION('',(5.551115123126E-16,-3.885780586188E-16,-1.));
#36 = DIRECTION('',(2.22044604925E-16,1.,-3.885780586188E-16));
#37 = ORIENTED_EDGE('',*,*,#21,.T.);
#38 = ORIENTED_EDGE('',*,*,#39,.F.);
#39 = EDGE_CURVE('',#24,#24,#40,.T.);
#40 = CIRCLE('',#41,8.5);
#41 = AXIS2_PLACEMENT_3D('',#42,#43,#44);
#42 = CARTESIAN_POINT('',(1.249000902703E-15,-8.743006318923E-16,-2.25)
  );
#43 = DIRECTION('',(5.551115123126E-16,-3.885780586188E-16,-1.));
#44 = DIRECTION('',(2.22044604925E-16,1.,-3.885780586188E-16));
#45 = CYLINDRICAL_SURFACE('',#46,8.5);
#46 = AXIS2_PLACEMENT_3D('',#47,#48,#49);
#47 = CARTESIAN_POINT('',(-1.387778780781E-15,9.71445146547E-16,2.5));
#48 = DIRECTION('',(5.551115123126E-16,-3.885780586188E-16,-1.));
#49 = DIRECTION('',(2.22044604925E-16,1.,-3.885780586188E-16));
#50 = ADVANCED_FACE('',(#51),#70,.F.);
#51 = FACE_BOUND('',#52,.T.);
#52 = EDGE_LOOP('',(#53,#61,#62,#63));
#53 = ORIENTED_EDGE('',*,*,#54,.F.);
#54 = EDGE_CURVE('',#22,#55,#57,.T.);
#55 = VERTEX_POINT('',#56);
#56 = CARTESIAN_POINT('',(5.551115123126E-16,8.75,2.5));
#57 = LINE('',#58,#59);
#58 = CARTESIAN_POINT('',(6.383782391595E-16,8.5,2.25));
#59 = VECTOR('',#60,1.);
#60 = DIRECTION('',(-2.355138688026E-16,0.707106781187,0.707106781187));
#61 = ORIENTED_EDGE('',*,*,#31,.T.);
#62 = ORIENTED_EDGE('',*,*,#54,.T.);
#63 = ORIENTED_EDGE('',*,*,#64,.F.);
#64 = EDGE_CURVE('',#55,#55,#65,.T.);
#65 = CIRCLE('',#66,8.75);
#66 = AXIS2_PLACEMENT_3D('',#67,#68,#69);
#67 = CARTESIAN_POINT('',(-1.387778780781E-15,9.71445146547E-16,2.5));
#68 = DIRECTION('',(5.551115123126E-16,-3.885780586188E-16,-1.));
#69 = DIRECTION('',(2.22044604925E-16,1.,-3.885780586188E-16));
#70 = CONICAL_SURFACE('',#71,8.5,0.785398163397);
#71 = AXIS2_PLACEMENT_3D('',#72,#73,#74);
#72 = CARTESIAN_POINT('',(-1.249000902703E-15,8.743006318923E-16,2.25));
#73 = DIRECTION('',(-5.551115123126E-16,3.885780586188E-16,1.));
#74 = DIRECTION('',(2.22044604925E-16,1.,-3.885780586188E-16));
#75 = ADVANCED_FACE('',(#76),#95,.F.);
#76 = FACE_BOUND('',#77,.F.);
#77 = EDGE_LOOP('',(#78,#86,#87,#88));
#78 = ORIENTED_EDGE('',*,*,#79,.F.);
#79 = EDGE_CURVE('',#24,#80,#82,.T.);
#80 = VERTEX_POINT('',#81);
#81 = CARTESIAN_POINT('',(3.330669073875E-15,8.75,-2.5));
#82 = LINE('',#83,#84);
#83 = CARTESIAN_POINT('',(3.136380044566E-15,8.5,-2.25));
#84 = VECTOR('',#85,1.);
#85 = DIRECTION('',(5.495323605393E-16,0.707106781187,-0.707106781187));
#86 = ORIENTED_EDGE('',*,*,#39,.T.);
#87 = ORIENTED_EDGE('',*,*,#79,.T.);
#88 = ORIENTED_EDGE('',*,*,#89,.F.);
#89 = EDGE_CURVE('',#80,#80,#90,.T.);
#90 = CIRCLE('',#91,8.75);
#91 = AXIS2_PLACEMENT_3D('',#92,#93,#94);
#92 = CARTESIAN_POINT('',(1.387778780781E-15,-9.71445146547E-16,-2.5));
#93 = DIRECTION('',(5.551115123126E-16,-3.885780586188E-16,-1.));
#94 = DIRECTION('',(2.22044604925E-16,1.,-3.885780586188E-16));
#95 = CONICAL_SURFACE('',#96,8.5,0.785398163397);
#96 = AXIS2_PLACEMENT_3D('',#97,#98,#99);
#97 = CARTESIAN_POINT('',(1.249000902703E-15,-8.743006318923E-16,-2.25)
  );
#98 = DIRECTION('',(5.551115123126E-16,-3.885780586188E-16,-1.));
#99 = DIRECTION('',(2.22044604925E-16,1.,-3.885780586188E-16));
#100 = ADVANCED_FACE('',(#101,#104),#115,.F.);
#101 = FACE_BOUND('',#102,.T.);
#102 = EDGE_LOOP('',(#103));
#103 = ORIENTED_EDGE('',*,*,#64,.T.);
#104 = FACE_BOUND('',#105,.T.);
#105 = EDGE_LOOP('',(#106));
#106 = ORIENTED_EDGE('',*,*,#107,.F.);
#107 = EDGE_CURVE('',#108,#108,#110,.T.);
#108 = VERTEX_POINT('',#109);
#109 = CARTESIAN_POINT('',(7.771561172376E-16,9.75,2.5));
#110 = CIRCLE('',#111,9.75);
#111 = AXIS2_PLACEMENT_3D('',#112,#113,#114);
#112 = CARTESIAN_POINT('',(-1.387778780781E-15,9.71445146547E-16,2.5));
#113 = DIRECTION('',(5.551115123126E-16,-3.885780586188E-16,-1.));
#114 = DIRECTION('',(2.22044604925E-16,1.,-3.885780586188E-16));
#115 = PLANE('',#116);
#116 = AXIS2_PLACEMENT_3D('',#117,#118,#119);
#117 = CARTESIAN_POINT('',(-1.387778780781E-15,9.71445146547E-16,2.5));
#118 = DIRECTION('',(5.551115123126E-16,-3.885780586188E-16,-1.));
#119 = DIRECTION('',(2.22044604925E-16,1.,-3.885780586188E-16));
#120 = ADVANCED_FACE('',(#121,#124),#135,.T.);
#121 = FACE_BOUND('',#122,.F.);
#122 = EDGE_LOOP('',(#123));
#123 = ORIENTED_EDGE('',*,*,#89,.T.);
#124 = FACE_BOUND('',#125,.F.);
#125 = EDGE_LOOP('',(#126));
#126 = ORIENTED_EDGE('',*,*,#127,.F.);
#127 = EDGE_CURVE('',#128,#128,#130,.T.);
#128 = VERTEX_POINT('',#129);
#129 = CARTESIAN_POINT('',(3.552713678801E-15,9.75,-2.5));
#130 = CIRCLE('',#131,9.75);
#131 = AXIS2_PLACEMENT_3D('',#132,#133,#134);
#132 = CARTESIAN_POINT('',(1.387778780781E-15,-9.71445146547E-16,-2.5));
#133 = DIRECTION('',(5.551115123126E-16,-3.885780586188E-16,-1.));
#134 = DIRECTION('',(2.22044604925E-16,1.,-3.885780586188E-16));
#135 = PLANE('',#136);
#136 = AXIS2_PLACEMENT_3D('',#137,#138,#139);
#137 = CARTESIAN_POINT('',(1.387778780781E-15,-9.71445146547E-16,-2.5));
#138 = DIRECTION('',(5.551115123126E-16,-3.885780586188E-16,-1.));
#139 = DIRECTION('',(2.22044604925E-16,1.,-3.885780586188E-16));
#140 = ADVANCED_FACE('',(#141),#160,.T.);
#141 = FACE_BOUND('',#142,.T.);
#142 = EDGE_LOOP('',(#143,#144,#152,#159));
#143 = ORIENTED_EDGE('',*,*,#107,.T.);
#144 = ORIENTED_EDGE('',*,*,#145,.T.);
#145 = EDGE_CURVE('',#108,#146,#148,.T.);
#146 = VERTEX_POINT('',#147);
#147 = CARTESIAN_POINT('',(9.71445146547E-16,10.,2.25));
#148 = LINE('',#149,#150);
#149 = CARTESIAN_POINT('',(-1.942890293094E-15,9.75,2.5));
#150 = VECTOR('',#151,1.);
#151 = DIRECTION('',(5.495323605393E-16,0.707106781187,-0.707106781187)
  );
#152 = ORIENTED_EDGE('',*,*,#153,.F.);
#153 = EDGE_CURVE('',#146,#146,#154,.T.);
#154 = CIRCLE('',#155,10.);
#155 = AXIS2_PLACEMENT_3D('',#156,#157,#158);
#156 = CARTESIAN_POINT('',(-1.249000902703E-15,8.743006318923E-16,2.25)
  );
#157 = DIRECTION('',(5.551115123126E-16,-3.885780586188E-16,-1.));
#158 = DIRECTION('',(2.22044604925E-16,1.,-3.885780586188E-16));
#159 = ORIENTED_EDGE('',*,*,#145,.F.);
#160 = CONICAL_SURFACE('',#161,9.75,0.785398163397);
#161 = AXIS2_PLACEMENT_3D('',#162,#163,#164);
#162 = CARTESIAN_POINT('',(-1.387778780781E-15,9.71445146547E-16,2.5));
#163 = DIRECTION('',(5.551115123126E-16,-3.885780586188E-16,-1.));
#164 = DIRECTION('',(2.22044604925E-16,1.,-3.885780586188E-16));
#165 = ADVANCED_FACE('',(#166),#185,.T.);
#166 = FACE_BOUND('',#167,.F.);
#167 = EDGE_LOOP('',(#168,#169,#177,#184));
#168 = ORIENTED_EDGE('',*,*,#127,.T.);
#169 = ORIENTED_EDGE('',*,*,#170,.T.);
#170 = EDGE_CURVE('',#128,#171,#173,.T.);
#171 = VERTEX_POINT('',#172);
#172 = CARTESIAN_POINT('',(3.469446951954E-15,10.,-2.25));
#173 = LINE('',#174,#175);
#174 = CARTESIAN_POINT('',(1.942890293094E-15,9.75,-2.5));
#175 = VECTOR('',#176,1.);
#176 = DIRECTION('',(-5.495323605393E-16,0.707106781187,0.707106781187)
  );
#177 = ORIENTED_EDGE('',*,*,#178,.F.);
#178 = EDGE_CURVE('',#171,#171,#179,.T.);
#179 = CIRCLE('',#180,10.);
#180 = AXIS2_PLACEMENT_3D('',#181,#182,#183);
#181 = CARTESIAN_POINT('',(1.249000902703E-15,-8.743006318923E-16,-2.25)
  );
#182 = DIRECTION('',(5.551115123126E-16,-3.885780586188E-16,-1.));
#183 = DIRECTION('',(2.22044604925E-16,1.,-3.885780586188E-16));
#184 = ORIENTED_EDGE('',*,*,#170,.F.);
#185 = CONICAL_SURFACE('',#186,9.75,0.785398163397);
#186 = AXIS2_PLACEMENT_3D('',#187,#188,#189);
#187 = CARTESIAN_POINT('',(1.387778780781E-15,-9.71445146547E-16,-2.5));
#188 = DIRECTION('',(-5.551115123126E-16,3.885780586188E-16,1.));
#189 = DIRECTION('',(2.22044604925E-16,1.,-3.885780586188E-16));
#190 = ADVANCED_FACE('',(#191,#194),#205,.F.);
#191 = FACE_BOUND('',#192,.T.);
#192 = EDGE_LOOP('',(#193));
#193 = ORIENTED_EDGE('',*,*,#153,.T.);
#194 = FACE_BOUND('',#195,.T.);
#195 = EDGE_LOOP('',(#196));
#196 = ORIENTED_EDGE('',*,*,#197,.F.);
#197 = EDGE_CURVE('',#198,#198,#200,.T.);
#198 = VERTEX_POINT('',#199);
#199 = CARTESIAN_POINT('',(1.360023205166E-15,11.75,2.25));
#200 = CIRCLE('',#201,11.75);
#201 = AXIS2_PLACEMENT_3D('',#202,#203,#204);
#202 = CARTESIAN_POINT('',(-1.249000902703E-15,8.743006318923E-16,2.25)
  );
#203 = DIRECTION('',(5.551115123126E-16,-3.885780586188E-16,-1.));
#204 = DIRECTION('',(2.22044604925E-16,1.,-3.885780586188E-16));
#205 = PLANE('',#206);
#206 = AXIS2_PLACEMENT_3D('',#207,#208,#209);
#207 = CARTESIAN_POINT('',(-1.249000902703E-15,8.743006318923E-16,2.25)
  );
#208 = DIRECTION('',(5.551115123126E-16,-3.885780586188E-16,-1.));
#209 = DIRECTION('',(2.22044604925E-16,1.,-3.885780586188E-16));
#210 = ADVANCED_FACE('',(#211,#214),#225,.T.);
#211 = FACE_BOUND('',#212,.F.);
#212 = EDGE_LOOP('',(#213));
#213 = ORIENTED_EDGE('',*,*,#178,.T.);
#214 = FACE_BOUND('',#215,.F.);
#215 = EDGE_LOOP('',(#216));
#216 = ORIENTED_EDGE('',*,*,#217,.F.);
#217 = EDGE_CURVE('',#218,#218,#220,.T.);
#218 = VERTEX_POINT('',#219);
#219 = CARTESIAN_POINT('',(3.858025010572E-15,11.75,-2.25));
#220 = CIRCLE('',#221,11.75);
#221 = AXIS2_PLACEMENT_3D('',#222,#223,#224);
#222 = CARTESIAN_POINT('',(1.249000902703E-15,-8.743006318923E-16,-2.25)
  );
#223 = DIRECTION('',(5.551115123126E-16,-3.885780586188E-16,-1.));
#224 = DIRECTION('',(2.22044604925E-16,1.,-3.885780586188E-16));
#225 = PLANE('',#226);
#226 = AXIS2_PLACEMENT_3D('',#227,#228,#229);
#227 = CARTESIAN_POINT('',(1.249000902703E-15,-8.743006318923E-16,-2.25)
  );
#228 = DIRECTION('',(5.551115123126E-16,-3.885780586188E-16,-1.));
#229 = DIRECTION('',(2.22044604925E-16,1.,-3.885780586188E-16));
#230 = ADVANCED_FACE('',(#231),#250,.F.);
#231 = FACE_BOUND('',#232,.T.);
#232 = EDGE_LOOP('',(#233,#234,#242,#249));
#233 = ORIENTED_EDGE('',*,*,#197,.T.);
#234 = ORIENTED_EDGE('',*,*,#235,.T.);
#235 = EDGE_CURVE('',#198,#236,#238,.T.);
#236 = VERTEX_POINT('',#237);
#237 = CARTESIAN_POINT('',(1.276756478319E-15,12.,2.5));
#238 = LINE('',#239,#240);
#239 = CARTESIAN_POINT('',(-1.748601263785E-15,11.75,2.25));
#240 = VECTOR('',#241,1.);
#241 = DIRECTION('',(-5.495323605393E-16,0.707106781187,0.707106781187)
  );
#242 = ORIENTED_EDGE('',*,*,#243,.F.);
#243 = EDGE_CURVE('',#236,#236,#244,.T.);
#244 = CIRCLE('',#245,12.);
#245 = AXIS2_PLACEMENT_3D('',#246,#247,#248);
#246 = CARTESIAN_POINT('',(-1.387778780781E-15,9.71445146547E-16,2.5));
#247 = DIRECTION('',(5.551115123126E-16,-3.885780586188E-16,-1.));
#248 = DIRECTION('',(2.22044604925E-16,1.,-3.885780586188E-16));
#249 = ORIENTED_EDGE('',*,*,#235,.F.);
#250 = CONICAL_SURFACE('',#251,11.75,0.785398163397);
#251 = AXIS2_PLACEMENT_3D('',#252,#253,#254);
#252 = CARTESIAN_POINT('',(-1.249000902703E-15,8.743006318923E-16,2.25)
  );
#253 = DIRECTION('',(-5.551115123126E-16,3.885780586188E-16,1.));
#254 = DIRECTION('',(2.22044604925E-16,1.,-3.885780586188E-16));
#255 = ADVANCED_FACE('',(#256),#275,.F.);
#256 = FACE_BOUND('',#257,.F.);
#257 = EDGE_LOOP('',(#258,#259,#267,#274));
#258 = ORIENTED_EDGE('',*,*,#217,.T.);
#259 = ORIENTED_EDGE('',*,*,#260,.T.);
#260 = EDGE_CURVE('',#218,#261,#263,.T.);
#261 = VERTEX_POINT('',#262);
#262 = CARTESIAN_POINT('',(4.052314039882E-15,12.,-2.5));
#263 = LINE('',#264,#265);
#264 = CARTESIAN_POINT('',(1.748601263785E-15,11.75,-2.25));
#265 = VECTOR('',#266,1.);
#266 = DIRECTION('',(5.495323605393E-16,0.707106781187,-0.707106781187)
  );
#267 = ORIENTED_EDGE('',*,*,#268,.F.);
#268 = EDGE_CURVE('',#261,#261,#269,.T.);
#269 = CIRCLE('',#270,12.);
#270 = AXIS2_PLACEMENT_3D('',#271,#272,#273);
#271 = CARTESIAN_POINT('',(1.387778780781E-15,-9.71445146547E-16,-2.5));
#272 = DIRECTION('',(5.551115123126E-16,-3.885780586188E-16,-1.));
#273 = DIRECTION('',(2.22044604925E-16,1.,-3.885780586188E-16));
#274 = ORIENTED_EDGE('',*,*,#260,.F.);
#275 = CONICAL_SURFACE('',#276,11.75,0.785398163397);
#276 = AXIS2_PLACEMENT_3D('',#277,#278,#279);
#277 = CARTESIAN_POINT('',(1.249000902703E-15,-8.743006318923E-16,-2.25)
  );
#278 = DIRECTION('',(5.551115123126E-16,-3.885780586188E-16,-1.));
#279 = DIRECTION('',(2.22044604925E-16,1.,-3.885780586188E-16));
#280 = ADVANCED_FACE('',(#281,#292),#295,.F.);
#281 = FACE_BOUND('',#282,.T.);
#282 = EDGE_LOOP('',(#283));
#283 = ORIENTED_EDGE('',*,*,#284,.F.);
#284 = EDGE_CURVE('',#285,#285,#287,.T.);
#285 = VERTEX_POINT('',#286);
#286 = CARTESIAN_POINT('',(1.443289932013E-15,12.75,2.5));
#287 = CIRCLE('',#288,12.75);
#288 = AXIS2_PLACEMENT_3D('',#289,#290,#291);
#289 = CARTESIAN_POINT('',(-1.387778780781E-15,9.71445146547E-16,2.5));
#290 = DIRECTION('',(5.551115123126E-16,-3.885780586188E-16,-1.));
#291 = DIRECTION('',(2.22044604925E-16,1.,-3.885780586188E-16));
#292 = FACE_BOUND('',#293,.T.);
#293 = EDGE_LOOP('',(#294));
#294 = ORIENTED_EDGE('',*,*,#243,.T.);
#295 = PLANE('',#296);
#296 = AXIS2_PLACEMENT_3D('',#297,#298,#299);
#297 = CARTESIAN_POINT('',(-1.387778780781E-15,9.71445146547E-16,2.5));
#298 = DIRECTION('',(5.551115123126E-16,-3.885780586188E-16,-1.));
#299 = DIRECTION('',(2.22044604925E-16,1.,-3.885780586188E-16));
#300 = ADVANCED_FACE('',(#301,#312),#315,.T.);
#301 = FACE_BOUND('',#302,.F.);
#302 = EDGE_LOOP('',(#303));
#303 = ORIENTED_EDGE('',*,*,#304,.F.);
#304 = EDGE_CURVE('',#305,#305,#307,.T.);
#305 = VERTEX_POINT('',#306);
#306 = CARTESIAN_POINT('',(4.218847493576E-15,12.75,-2.5));
#307 = CIRCLE('',#308,12.75);
#308 = AXIS2_PLACEMENT_3D('',#309,#310,#311);
#309 = CARTESIAN_POINT('',(1.387778780781E-15,-9.71445146547E-16,-2.5));
#310 = DIRECTION('',(5.551115123126E-16,-3.885780586188E-16,-1.));
#311 = DIRECTION('',(2.22044604925E-16,1.,-3.885780586188E-16));
#312 = FACE_BOUND('',#313,.F.);
#313 = EDGE_LOOP('',(#314));
#314 = ORIENTED_EDGE('',*,*,#268,.T.);
#315 = PLANE('',#316);
#316 = AXIS2_PLACEMENT_3D('',#317,#318,#319);
#317 = CARTESIAN_POINT('',(1.387778780781E-15,-9.71445146547E-16,-2.5));
#318 = DIRECTION('',(5.551115123126E-16,-3.885780586188E-16,-1.));
#319 = DIRECTION('',(2.22044604925E-16,1.,-3.885780586188E-16));
#320 = ADVANCED_FACE('',(#321),#340,.T.);
#321 = FACE_BOUND('',#322,.F.);
#322 = EDGE_LOOP('',(#323,#331,#338,#339));
#323 = ORIENTED_EDGE('',*,*,#324,.F.);
#324 = EDGE_CURVE('',#325,#285,#327,.T.);
#325 = VERTEX_POINT('',#326);
#326 = CARTESIAN_POINT('',(1.637578961322E-15,13.,2.25));
#327 = LINE('',#328,#329);
#328 = CARTESIAN_POINT('',(1.637578961322E-15,13.,2.25));
#329 = VECTOR('',#330,1.);
#330 = DIRECTION('',(-5.495323605393E-16,-0.707106781187,0.707106781187)
  );
#331 = ORIENTED_EDGE('',*,*,#332,.T.);
#332 = EDGE_CURVE('',#325,#325,#333,.T.);
#333 = CIRCLE('',#334,13.);
#334 = AXIS2_PLACEMENT_3D('',#335,#336,#337);
#335 = CARTESIAN_POINT('',(-1.249000902703E-15,8.743006318923E-16,2.25)
  );
#336 = DIRECTION('',(5.551115123126E-16,-3.885780586188E-16,-1.));
#337 = DIRECTION('',(2.22044604925E-16,1.,-3.885780586188E-16));
#338 = ORIENTED_EDGE('',*,*,#324,.T.);
#339 = ORIENTED_EDGE('',*,*,#284,.F.);
#340 = CONICAL_SURFACE('',#341,13.,0.785398163397);
#341 = AXIS2_PLACEMENT_3D('',#342,#343,#344);
#342 = CARTESIAN_POINT('',(-1.249000902703E-15,8.743006318923E-16,2.25)
  );
#343 = DIRECTION('',(5.551115123126E-16,-3.885780586188E-16,-1.));
#344 = DIRECTION('',(2.22044604925E-16,1.,-3.885780586188E-16));
#345 = ADVANCED_FACE('',(#346),#365,.T.);
#346 = FACE_BOUND('',#347,.F.);
#347 = EDGE_LOOP('',(#348,#356,#357,#358));
#348 = ORIENTED_EDGE('',*,*,#349,.F.);
#349 = EDGE_CURVE('',#305,#350,#352,.T.);
#350 = VERTEX_POINT('',#351);
#351 = CARTESIAN_POINT('',(4.135580766729E-15,13.,-2.25));
#352 = LINE('',#353,#354);
#353 = CARTESIAN_POINT('',(4.135580766729E-15,13.,-2.25));
#354 = VECTOR('',#355,1.);
#355 = DIRECTION('',(-2.355138688026E-16,0.707106781187,0.707106781187)
  );
#356 = ORIENTED_EDGE('',*,*,#304,.T.);
#357 = ORIENTED_EDGE('',*,*,#349,.T.);
#358 = ORIENTED_EDGE('',*,*,#359,.F.);
#359 = EDGE_CURVE('',#350,#350,#360,.T.);
#360 = CIRCLE('',#361,13.);
#361 = AXIS2_PLACEMENT_3D('',#362,#363,#364);
#362 = CARTESIAN_POINT('',(1.249000902703E-15,-8.743006318923E-16,-2.25)
  );
#363 = DIRECTION('',(5.551115123126E-16,-3.885780586188E-16,-1.));
#364 = DIRECTION('',(2.22044604925E-16,1.,-3.885780586188E-16));
#365 = CONICAL_SURFACE('',#366,13.,0.785398163397);
#366 = AXIS2_PLACEMENT_3D('',#367,#368,#369);
#367 = CARTESIAN_POINT('',(1.249000902703E-15,-8.743006318923E-16,-2.25)
  );
#368 = DIRECTION('',(-5.551115123126E-16,3.885780586188E-16,1.));
#369 = DIRECTION('',(2.22044604925E-16,1.,-3.885780586188E-16));
#370 = ADVANCED_FACE('',(#371),#382,.T.);
#371 = FACE_BOUND('',#372,.T.);
#372 = EDGE_LOOP('',(#373,#379,#380,#381));
#373 = ORIENTED_EDGE('',*,*,#374,.F.);
#374 = EDGE_CURVE('',#325,#350,#375,.T.);
#375 = LINE('',#376,#377);
#376 = CARTESIAN_POINT('',(-1.942890293094E-15,13.,2.5));
#377 = VECTOR('',#378,1.);
#378 = DIRECTION('',(7.771561172376E-16,-1.110223024625E-16,-1.));
#379 = ORIENTED_EDGE('',*,*,#332,.T.);
#380 = ORIENTED_EDGE('',*,*,#374,.T.);
#381 = ORIENTED_EDGE('',*,*,#359,.F.);
#382 = CYLINDRICAL_SURFACE('',#383,13.);
#383 = AXIS2_PLACEMENT_3D('',#384,#385,#386);
#384 = CARTESIAN_POINT('',(-1.387778780781E-15,9.71445146547E-16,2.5));
#385 = DIRECTION('',(5.551115123126E-16,-3.885780586188E-16,-1.));
#386 = DIRECTION('',(2.22044604925E-16,1.,-3.885780586188E-16));
#387 = ( GEOMETRIC_REPRESENTATION_CONTEXT(3) 
GLOBAL_UNCERTAINTY_ASSIGNED_CONTEXT((#391)) GLOBAL_UNIT_ASSIGNED_CONTEXT
((#388,#389,#390)) REPRESENTATION_CONTEXT('Context #1',
  '3D Context with UNIT and UNCERTAINTY') );
#388 = ( LENGTH_UNIT() NAMED_UNIT(*) SI_UNIT(.MILLI.,.METRE.) );
#389 = ( NAMED_UNIT(*) PLANE_ANGLE_UNIT() SI_UNIT($,.RADIAN.) );
#390 = ( NAMED_UNIT(*) SI_UNIT($,.STERADIAN.) SOLID_ANGLE_UNIT() );
#391 = UNCERTAINTY_MEASURE_WITH_UNIT(LENGTH_MEASURE(1.E-07),#388,
  'distance_accuracy_value','confusion accuracy');
#392 = PRODUCT_RELATED_PRODUCT_CATEGORY('part',$,(#7));
#393 = MECHANICAL_DESIGN_GEOMETRIC_PRESENTATION_REPRESENTATION('',(#394,
    #405,#413),#387);
#394 = STYLED_ITEM('color',(#395),#15);
#395 = PRESENTATION_STYLE_ASSIGNMENT((#396,#402));
#396 = SURFACE_STYLE_USAGE(.BOTH.,#397);
#397 = SURFACE_SIDE_STYLE('',(#398));
#398 = SURFACE_STYLE_FILL_AREA(#399);
#399 = FILL_AREA_STYLE('',(#400));
#400 = FILL_AREA_STYLE_COLOUR('',#401);
#401 = COLOUR_RGB('',0.300000011149,0.300000011149,0.300000011149);
#402 = CURVE_STYLE('',#403,POSITIVE_LENGTH_MEASURE(0.1),#404);
#403 = DRAUGHTING_PRE_DEFINED_CURVE_FONT('continuous');
#404 = COLOUR_RGB('',9.803921802644E-02,9.803921802644E-02,
  9.803921802644E-02);
#405 = OVER_RIDING_STYLED_ITEM('overriding color',(#406),#190,#394);
#406 = PRESENTATION_STYLE_ASSIGNMENT((#407));
#407 = SURFACE_STYLE_USAGE(.BOTH.,#408);
#408 = SURFACE_SIDE_STYLE('',(#409));
#409 = SURFACE_STYLE_FILL_AREA(#410);
#410 = FILL_AREA_STYLE('',(#411));
#411 = FILL_AREA_STYLE_COLOUR('',#412);
#412 = DRAUGHTING_PRE_DEFINED_COLOUR('black');
#413 = OVER_RIDING_STYLED_ITEM('overriding color',(#414),#210,#394);
#414 = PRESENTATION_STYLE_ASSIGNMENT((#415));
#415 = SURFACE_STYLE_USAGE(.BOTH.,#416);
#416 = SURFACE_SIDE_STYLE('',(#417));
#417 = SURFACE_STYLE_FILL_AREA(#418);
#418 = FILL_AREA_STYLE('',(#419));
#419 = FILL_AREA_STYLE_COLOUR('',#412);
ENDSEC;
END-ISO-10303-21;
