  0
SECTION
  2
HEADER
  9
$ACADVER
  1
AC1009
  9
$INSBASE
 10
0.0
 20
0.0
 30
0.0
  9
$EXTMIN
 10
0.0
 20
0.0
 30
0.0
  9
$EXTMAX
 10
0.0
 20
0.0
 30
0.0
  0
ENDSEC
  0
SECTION
  2
TABLES
  0
TABLE
  2
VPORT
 70
0
  0
ENDTAB
  0
TABLE
  2
LTYPE
 70
1
  0
LTYPE
  2
CONTINUOUS
 70
0
  3
Solid line
 72
65
 73
0
 40
0.0
  0
ENDTAB
  0
TABLE
  2
LAYER
 70
1
  0
LAYER
  2
0
 70
64
 62
7
  6
continuous
  0
ENDTAB
  0
TABLE
  2
STYLE
 70
1
  0
STYLE
  2
STANDARD
 70
0
 40
0
 41
1.0
 50
0.0
 71
0
 42
1
 3
ARIAL.TTF
 4

  0
ENDTAB
  0
TABLE
  2
VIEW
 70
0
  0
ENDTAB
  0
ENDSEC
  0
SECTION
  2
BLOCKS
  0
BLOCK
  8
0
  2
SKETCH009
 70
0
 10
0.0
 20
0.0
 30
0.0
  3
SKETCH009
  0
POLYLINE
  8
0
 62
0
 70
1
 66
1
 10
0.0
 20
0.0
 30
0.0
  0
VERTEX
  8
0
 10
0.0
 20
1e-15
 30
0.0
  0
VERTEX
  8
0
 10
1.685649653114187
 20
3.7705470977508657
 30
0.0
  0
VERTEX
  8
0
 10
3.528931083044983
 20
7.393405802768167
 30
0.0
  0
VERTEX
  8
0
 10
5.529844289792386
 20
10.868576115051905
 30
0.0
  0
VERTEX
  8
0
 10
7.6883892733564005
 20
14.196058034602078
 30
0.0
  0
VERTEX
  8
0
 10
10.004566033737024
 20
17.375851561418685
 30
0.0
  0
VERTEX
  8
0
 10
12.478374570934255
 20
20.407956695501728
 30
0.0
  0
VERTEX
  8
0
 10
15.109814884948095
 20
23.29237343685121
 30
0.0
  0
VERTEX
  8
0
 10
17.898886975778545
 20
26.029101785467127
 30
0.0
  0
VERTEX
  8
0
 10
20.845590843425605
 20
28.618141741349483
 30
0.0
  0
VERTEX
  8
0
 10
23.949926487889275
 20
31.05949330449827
 30
0.0
  0
VERTEX
  8
0
 10
27.21189390916955
 20
33.3531564749135
 30
0.0
  0
VERTEX
  8
0
 10
30.63149310726643
 20
35.499131252595156
 30
0.0
  0
VERTEX
  8
0
 10
34.20872408217993
 20
37.49741763754326
 30
0.0
  0
VERTEX
  8
0
 10
37.943586833910025
 20
39.34801562975778
 30
0.0
  0
VERTEX
  8
0
 10
41.83608136245674
 20
41.05092522923876
 30
0.0
  0
VERTEX
  8
0
 10
45.88620766782007
 20
42.60614643598616
 30
0.0
  0
VERTEX
  8
0
 10
50.093965749999995
 20
44.01367925
 30
0.0
  0
VERTEX
  8
0
 10
54.45935560899654
 20
45.27352367128028
 30
0.0
  0
VERTEX
  8
0
 10
58.98237724480968
 20
46.38567969982699
 30
0.0
  0
VERTEX
  8
0
 10
63.66303065743944
 20
47.350147335640145
 30
0.0
  0
VERTEX
  8
0
 10
68.50131584688582
 20
48.166926578719725
 30
0.0
  0
VERTEX
  8
0
 10
73.49723281314878
 20
48.83601742906575
 30
0.0
  0
VERTEX
  8
0
 10
78.65078155622838
 20
49.35741988667821
 30
0.0
  0
VERTEX
  8
0
 10
83.96196207612455
 20
49.731133951557105
 30
0.0
  0
VERTEX
  8
0
 10
89.43077437283736
 20
49.957159623702424
 30
0.0
  0
VERTEX
  8
0
 10
95.05721844636678
 20
50.035496903114186
 30
0.0
  0
VERTEX
  8
0
 10
100.84129429671279
 20
49.96614578979239
 30
0.0
  0
VERTEX
  8
0
 10
106.78300192387543
 20
49.74910628373703
 30
0.0
  0
VERTEX
  8
0
 10
112.88234132785466
 20
49.38437838494811
 30
0.0
  0
VERTEX
  8
0
 10
119.13931250865052
 20
48.871962093425616
 30
0.0
  0
VERTEX
  8
0
 10
125.55391546626298
 20
48.21185740916955
 30
0.0
  0
VERTEX
  8
0
 10
132.12615020069205
 20
47.404064332179935
 30
0.0
  0
VERTEX
  8
0
 10
138.8560167119377
 20
46.44858286245675
 30
0.0
  0
VERTEX
  8
0
 10
145.743515
 20
45.345413
 30
0.0
  0
VERTEX
  8
0
 10
145.05288353826532
 20
50.08103376913265
 30
0.0
  0
VERTEX
  8
0
 10
144.59810686734693
 20
54.74046950510204
 30
0.0
  0
VERTEX
  8
0
 10
144.3791849872449
 20
59.32372020790817
 30
0.0
  0
VERTEX
  8
0
 10
144.3961178979592
 20
63.83078587755102
 30
0.0
  0
VERTEX
  8
0
 10
144.6489055994898
 20
68.26166651403061
 30
0.0
  0
VERTEX
  8
0
 10
145.13754809183672
 20
72.61636211734694
 30
0.0
  0
VERTEX
  8
0
 10
145.862045375
 20
76.8948726875
 30
0.0
  0
VERTEX
  8
0
 10
146.8223974489796
 20
81.0971982244898
 30
0.0
  0
VERTEX
  8
0
 10
148.0186043137755
 20
85.22333872831632
 30
0.0
  0
VERTEX
  8
0
 10
149.45066596938776
 20
89.27329419897958
 30
0.0
  0
VERTEX
  8
0
 10
151.11858241581632
 20
93.24706463647959
 30
0.0
  0
VERTEX
  8
0
 10
153.02235365306123
 20
97.14465004081632
 30
0.0
  0
VERTEX
  8
0
 10
155.16197968112243
 20
100.96605041198978
 30
0.0
  0
VERTEX
  8
0
 10
157.5374605
 20
104.71126575
 30
0.0
  0
VERTEX
  8
0
 10
160.14879610969388
 20
108.38029605484694
 30
0.0
  0
VERTEX
  8
0
 10
162.99598651020406
 20
111.9731413265306
 30
0.0
  0
VERTEX
  8
0
 10
166.0790317015306
 20
115.48980156505101
 30
0.0
  0
VERTEX
  8
0
 10
169.39793168367345
 20
118.93027677040814
 30
0.0
  0
VERTEX
  8
0
 10
172.95268645663265
 20
122.29456694260202
 30
0.0
  0
VERTEX
  8
0
 10
176.74329602040814
 20
125.58267208163264
 30
0.0
  0
VERTEX
  8
0
 10
180.76976037499998
 20
128.7945921875
 30
0.0
  0
VERTEX
  8
0
 10
185.03207952040816
 20
131.93032726020408
 30
0.0
  0
VERTEX
  8
0
 10
189.53025345663264
 20
134.9898772997449
 30
0.0
  0
VERTEX
  8
0
 10
194.26428218367346
 20
137.97324230612244
 30
0.0
  0
VERTEX
  8
0
 10
199.2341657015306
 20
140.88042227933673
 30
0.0
  0
VERTEX
  8
0
 10
204.43990401020406
 20
143.71141721938776
 30
0.0
  0
VERTEX
  8
0
 10
209.88149710969384
 20
146.4662271262755
 30
0.0
  0
VERTEX
  8
0
 10
215.558945
 20
149.144852
 30
0.0
  0
VERTEX
  8
0
 10
69.646065
 20
149.144852
 30
0.0
  0
VERTEX
  8
0
 10
69.74242986059569
 20
142.719729998291
 30
0.0
  0
VERTEX
  8
0
 10
68.64855293164062
 20
136.9364760800781
 30
0.0
  0
VERTEX
  8
0
 10
66.51939057202148
 20
131.78829218823242
 30
0.0
  0
VERTEX
  8
0
 10
63.509899140624995
 20
127.268380265625
 30
0.0
  0
VERTEX
  8
0
 10
59.77503499633788
 20
123.36994225512694
 30
0.0
  0
VERTEX
  8
0
 10
55.46975449804687
 20
120.08618009960938
 30
0.0
  0
VERTEX
  8
0
 10
50.74901400463867
 20
117.41029574194336
 30
0.0
  0
VERTEX
  8
0
 10
45.76776987499999
 20
115.335491125
 30
0.0
  0
VERTEX
  8
0
 10
40.68097846801757
 20
113.85496819165039
 30
0.0
  0
VERTEX
  8
0
 10
35.64359614257811
 20
112.96192888476563
 30
0.0
  0
VERTEX
  8
0
 10
30.81057925756835
 20
112.64957514721681
 30
0.0
  0
VERTEX
  8
0
 10
26.336884171874985
 20
112.91110892187501
 30
0.0
  0
VERTEX
  8
0
 10
22.377467244384754
 20
113.73973215161132
 30
0.0
  0
VERTEX
  8
0
 10
19.087284833984356
 20
115.12864677929687
 30
0.0
  0
VERTEX
  8
0
 10
16.621293299560527
 20
117.07105474780273
 30
0.0
  0
VERTEX
  8
0
 10
15.134449
 20
119.560158
 30
0.0
  0
VERTEX
  8
0
 10
11.863122
 20
140.687485
 30
0.0
  0
VERTEX
  8
0
 10
8.293834
 20
125.549911
 30
0.0
  0
VERTEX
  8
0
 10
4.811719
 20
126.7595175
 30
0.0
  0
VERTEX
  8
0
 10
0.0
 20
126.836075
 30
0.0
  0
VERTEX
  8
0
 10
-4.811719
 20
126.7595175
 30
0.0
  0
VERTEX
  8
0
 10
-8.293834
 20
125.549911
 30
0.0
  0
VERTEX
  8
0
 10
-11.863122
 20
140.687485
 30
0.0
  0
VERTEX
  8
0
 10
-15.134449
 20
119.560158
 30
0.0
  0
VERTEX
  8
0
 10
-16.62129329956055
 20
117.07105474780273
 30
0.0
  0
VERTEX
  8
0
 10
-19.087284833984377
 20
115.12864677929687
 30
0.0
  0
VERTEX
  8
0
 10
-22.377467244384768
 20
113.73973215161134
 30
0.0
  0
VERTEX
  8
0
 10
-26.336884171875
 20
112.911108921875
 30
0.0
  0
VERTEX
  8
0
 10
-30.81057925756836
 20
112.6495751472168
 30
0.0
  0
VERTEX
  8
0
 10
-35.64359614257812
 20
112.96192888476563
 30
0.0
  0
VERTEX
  8
0
 10
-40.680978468017585
 20
113.85496819165039
 30
0.0
  0
VERTEX
  8
0
 10
-45.767769875
 20
115.335491125
 30
0.0
  0
VERTEX
  8
0
 10
-50.74901400463867
 20
117.41029574194336
 30
0.0
  0
VERTEX
  8
0
 10
-55.46975449804688
 20
120.08618009960938
 30
0.0
  0
VERTEX
  8
0
 10
-59.775034996337894
 20
123.36994225512694
 30
0.0
  0
VERTEX
  8
0
 10
-63.50989914062501
 20
127.268380265625
 30
0.0
  0
VERTEX
  8
0
 10
-66.51939057202149
 20
131.78829218823242
 30
0.0
  0
VERTEX
  8
0
 10
-68.64855293164065
 20
136.93647608007814
 30
0.0
  0
VERTEX
  8
0
 10
-69.74242986059572
 20
142.719729998291
 30
0.0
  0
VERTEX
  8
0
 10
-69.646065
 20
149.144852
 30
0.0
  0
VERTEX
  8
0
 10
-215.558945
 20
149.144852
 30
0.0
  0
VERTEX
  8
0
 10
-209.88149710969387
 20
146.4662271262755
 30
0.0
  0
VERTEX
  8
0
 10
-204.4399040102041
 20
143.71141721938776
 30
0.0
  0
VERTEX
  8
0
 10
-199.2341657015306
 20
140.88042227933673
 30
0.0
  0
VERTEX
  8
0
 10
-194.26428218367346
 20
137.97324230612244
 30
0.0
  0
VERTEX
  8
0
 10
-189.53025345663264
 20
134.98987729974488
 30
0.0
  0
VERTEX
  8
0
 10
-185.03207952040816
 20
131.93032726020408
 30
0.0
  0
VERTEX
  8
0
 10
-180.76976037499998
 20
128.7945921875
 30
0.0
  0
VERTEX
  8
0
 10
-176.74329602040817
 20
125.58267208163265
 30
0.0
  0
VERTEX
  8
0
 10
-172.95268645663265
 20
122.29456694260203
 30
0.0
  0
VERTEX
  8
0
 10
-169.39793168367348
 20
118.93027677040816
 30
0.0
  0
VERTEX
  8
0
 10
-166.0790317015306
 20
115.48980156505101
 30
0.0
  0
VERTEX
  8
0
 10
-162.9959865102041
 20
111.9731413265306
 30
0.0
  0
VERTEX
  8
0
 10
-160.14879610969388
 20
108.38029605484694
 30
0.0
  0
VERTEX
  8
0
 10
-157.5374605
 20
104.71126575
 30
0.0
  0
VERTEX
  8
0
 10
-155.16197968112243
 20
100.96605041198978
 30
0.0
  0
VERTEX
  8
0
 10
-153.02235365306123
 20
97.14465004081632
 30
0.0
  0
VERTEX
  8
0
 10
-151.11858241581632
 20
93.24706463647959
 30
0.0
  0
VERTEX
  8
0
 10
-149.45066596938776
 20
89.27329419897958
 30
0.0
  0
VERTEX
  8
0
 10
-148.0186043137755
 20
85.22333872831632
 30
0.0
  0
VERTEX
  8
0
 10
-146.8223974489796
 20
81.0971982244898
 30
0.0
  0
VERTEX
  8
0
 10
-145.86204537499998
 20
76.8948726875
 30
0.0
  0
VERTEX
  8
0
 10
-145.13754809183672
 20
72.61636211734694
 30
0.0
  0
VERTEX
  8
0
 10
-144.6489055994898
 20
68.26166651403061
 30
0.0
  0
VERTEX
  8
0
 10
-144.3961178979592
 20
63.83078587755101
 30
0.0
  0
VERTEX
  8
0
 10
-144.3791849872449
 20
59.32372020790817
 30
0.0
  0
VERTEX
  8
0
 10
-144.59810686734693
 20
54.74046950510204
 30
0.0
  0
VERTEX
  8
0
 10
-145.0528835382653
 20
50.081033769132645
 30
0.0
  0
VERTEX
  8
0
 10
-145.743515
 20
45.345413
 30
0.0
  0
VERTEX
  8
0
 10
-138.8560167119377
 20
46.448582862456746
 30
0.0
  0
VERTEX
  8
0
 10
-132.12615020069205
 20
47.40406433217993
 30
0.0
  0
VERTEX
  8
0
 10
-125.55391546626298
 20
48.21185740916955
 30
0.0
  0
VERTEX
  8
0
 10
-119.13931250865052
 20
48.87196209342561
 30
0.0
  0
VERTEX
  8
0
 10
-112.88234132785468
 20
49.3843783849481
 30
0.0
  0
VERTEX
  8
0
 10
-106.78300192387545
 20
49.74910628373703
 30
0.0
  0
VERTEX
  8
0
 10
-100.84129429671282
 20
49.96614578979239
 30
0.0
  0
VERTEX
  8
0
 10
-95.05721844636679
 20
50.035496903114186
 30
0.0
  0
VERTEX
  8
0
 10
-89.43077437283738
 20
49.957159623702424
 30
0.0
  0
VERTEX
  8
0
 10
-83.96196207612456
 20
49.7311339515571
 30
0.0
  0
VERTEX
  8
0
 10
-78.65078155622838
 20
49.3574198866782
 30
0.0
  0
VERTEX
  8
0
 10
-73.4972328131488
 20
48.83601742906575
 30
0.0
  0
VERTEX
  8
0
 10
-68.50131584688582
 20
48.166926578719725
 30
0.0
  0
VERTEX
  8
0
 10
-63.66303065743945
 20
47.350147335640145
 30
0.0
  0
VERTEX
  8
0
 10
-58.98237724480968
 20
46.385679699826994
 30
0.0
  0
VERTEX
  8
0
 10
-54.45935560899653
 20
45.27352367128028
 30
0.0
  0
VERTEX
  8
0
 10
-50.093965749999995
 20
44.01367925
 30
0.0
  0
VERTEX
  8
0
 10
-45.88620766782006
 20
42.60614643598616
 30
0.0
  0
VERTEX
  8
0
 10
-41.83608136245674
 20
41.05092522923876
 30
0.0
  0
VERTEX
  8
0
 10
-37.94358683391003
 20
39.34801562975779
 30
0.0
  0
VERTEX
  8
0
 10
-34.20872408217993
 20
37.49741763754326
 30
0.0
  0
VERTEX
  8
0
 10
-30.631493107266422
 20
35.499131252595156
 30
0.0
  0
VERTEX
  8
0
 10
-27.211893909169532
 20
33.3531564749135
 30
0.0
  0
VERTEX
  8
0
 10
-23.949926487889286
 20
31.05949330449828
 30
0.0
  0
VERTEX
  8
0
 10
-20.84559084342561
 20
28.61814174134949
 30
0.0
  0
VERTEX
  8
0
 10
-17.898886975778552
 20
26.029101785467134
 30
0.0
  0
VERTEX
  8
0
 10
-15.109814884948094
 20
23.292373436851218
 30
0.0
  0
VERTEX
  8
0
 10
-12.47837457093425
 20
20.40795669550174
 30
0.0
  0
VERTEX
  8
0
 10
-10.004566033737035
 20
17.375851561418695
 30
0.0
  0
VERTEX
  8
0
 10
-7.6883892733563926
 20
14.196058034602089
 30
0.0
  0
VERTEX
  8
0
 10
-5.529844289792379
 20
10.868576115051908
 30
0.0
  0
VERTEX
  8
0
 10
-3.528931083044995
 20
7.3934058027681715
 30
0.0
  0
VERTEX
  8
0
 10
-1.685649653114183
 20
3.770547097750871
 30
0.0
  0
SEQEND
  8
0
  0
POLYLINE
  8
0
 62
0
 70
1
 66
1
 10
0.0
 20
0.0
 30
0.0
  0
VERTEX
  8
0
 10
-100.0
 20
65.0
 30
0.0
  0
VERTEX
  8
0
 10
-100.0
 20
70.7
 30
0.0
  0
VERTEX
  8
0
 10
-85.3
 20
70.7
 30
0.0
  0
VERTEX
  8
0
 10
-85.3
 20
65.0
 30
0.0
  0
SEQEND
  8
0
  0
CIRCLE
  8
0
 62
0
 10
0.0
 20
55.0
 30
0.0
 40
1.8
  0
POLYLINE
  8
0
 62
0
 70
1
 66
1
 10
0.0
 20
0.0
 30
0.0
  0
VERTEX
  8
0
 10
-38.333333333333336
 20
65.0
 30
0.0
  0
VERTEX
  8
0
 10
-38.333333333333336
 20
70.7
 30
0.0
  0
VERTEX
  8
0
 10
-23.633333333333333
 20
70.7
 30
0.0
  0
VERTEX
  8
0
 10
-23.633333333333333
 20
65.0
 30
0.0
  0
SEQEND
  8
0
  0
POLYLINE
  8
0
 62
0
 70
1
 66
1
 10
0.0
 20
0.0
 30
0.0
  0
VERTEX
  8
0
 10
-2.85
 20
30.3
 30
0.0
  0
VERTEX
  8
0
 10
-2.85
 20
45.0
 30
0.0
  0
VERTEX
  8
0
 10
2.85
 20
45.0
 30
0.0
  0
VERTEX
  8
0
 10
2.85
 20
30.3
 30
0.0
  0
SEQEND
  8
0
  0
POLYLINE
  8
0
 62
0
 70
1
 66
1
 10
0.0
 20
0.0
 30
0.0
  0
VERTEX
  8
0
 10
23.33333333333333
 20
65.0
 30
0.0
  0
VERTEX
  8
0
 10
23.33333333333333
 20
70.7
 30
0.0
  0
VERTEX
  8
0
 10
38.03333333333333
 20
70.7
 30
0.0
  0
VERTEX
  8
0
 10
38.03333333333333
 20
65.0
 30
0.0
  0
SEQEND
  8
0
  0
POLYLINE
  8
0
 62
0
 70
1
 66
1
 10
0.0
 20
0.0
 30
0.0
  0
VERTEX
  8
0
 10
85.0
 20
65.0
 30
0.0
  0
VERTEX
  8
0
 10
85.0
 20
70.7
 30
0.0
  0
VERTEX
  8
0
 10
99.7
 20
70.7
 30
0.0
  0
VERTEX
  8
0
 10
99.7
 20
65.0
 30
0.0
  0
SEQEND
  8
0
  0
POLYLINE
  8
0
 62
0
 70
1
 66
1
 10
0.0
 20
0.0
 30
0.0
  0
VERTEX
  8
0
 10
-108.79462401965554
 20
222.20762562475892
 30
0.0
  0
VERTEX
  8
0
 10
-106.68820006057445
 20
204.97323729037987
 30
0.0
 42
-0.4164535404501965
  0
VERTEX
  8
0
 10
-119.87144348728961
 20
188.2507725991755
 30
0.0
  0
VERTEX
  8
0
 10
-132.8983778952929
 20
186.75953540989184
 30
0.0
 42
0.31480966413762307
  0
VERTEX
  8
0
 10
-138.0484596549376
 20
182.20642363486064
 30
0.0
  0
VERTEX
  8
0
 10
-142.0
 20
165.83716857408416
 30
0.0
  0
VERTEX
  8
0
 10
-123.99999999999996
 20
165.83716857408416
 30
0.0
  0
VERTEX
  8
0
 10
-123.99999999999994
 20
158.83716857408416
 30
0.0
  0
VERTEX
  8
0
 10
-108.99999999999996
 20
158.83716857408416
 30
0.0
  0
VERTEX
  8
0
 10
-108.99999999999994
 20
165.83716857408416
 30
0.0
  0
VERTEX
  8
0
 10
-88.99999999999993
 20
165.83716857408416
 30
0.0
  0
VERTEX
  8
0
 10
-88.99999999999983
 20
235.83716857408422
 30
0.0
  0
VERTEX
  8
0
 10
-105.32742625669047
 20
228.39516175298166
 30
0.0
 42
0.3271636156827122
  0
SEQEND
  8
0
  0
POLYLINE
  8
0
 62
0
 70
1
 66
1
 10
0.0
 20
0.0
 30
0.0
  0
VERTEX
  8
0
 10
-76.0
 20
174.0
 30
0.0
  0
VERTEX
  8
0
 10
-76.0
 20
254.0
 30
0.0
  0
VERTEX
  8
0
 10
-56.0
 20
254.0
 30
0.0
  0
VERTEX
  8
0
 10
-56.0
 20
261.0
 30
0.0
  0
VERTEX
  8
0
 10
-41.0
 20
261.0
 30
0.0
  0
VERTEX
  8
0
 10
-41.0
 20
254.0
 30
0.0
  0
VERTEX
  8
0
 10
5.666666666666657
 20
254.0
 30
0.0
  0
VERTEX
  8
0
 10
5.666666666666657
 20
261.0
 30
0.0
  0
VERTEX
  8
0
 10
20.666666666666657
 20
261.0
 30
0.0
  0
VERTEX
  8
0
 10
20.666666666666657
 20
254.0
 30
0.0
  0
VERTEX
  8
0
 10
67.33333333333331
 20
254.0
 30
0.0
  0
VERTEX
  8
0
 10
67.33333333333331
 20
261.0
 30
0.0
  0
VERTEX
  8
0
 10
82.33333333333331
 20
261.0
 30
0.0
  0
VERTEX
  8
0
 10
82.33333333333331
 20
254.0
 30
0.0
  0
VERTEX
  8
0
 10
129.0
 20
254.0
 30
0.0
  0
VERTEX
  8
0
 10
129.0
 20
261.0
 30
0.0
  0
VERTEX
  8
0
 10
144.0
 20
261.0
 30
0.0
  0
VERTEX
  8
0
 10
144.0
 20
254.0
 30
0.0
  0
VERTEX
  8
0
 10
164.0
 20
254.0
 30
0.0
  0
VERTEX
  8
0
 10
164.0
 20
174.0
 30
0.0
 42
-0.41421356237309503
  0
VERTEX
  8
0
 10
149.0
 20
159.0
 30
0.0
  0
VERTEX
  8
0
 10
-61.0
 20
159.0
 30
0.0
 42
-0.41421356237309503
  0
SEQEND
  8
0
  0
CIRCLE
  8
0
 62
0
 10
44.0
 20
239.0
 30
0.0
 40
1.8
  0
ENDBLK
  0
ENDSEC
  0
SECTION
  2
ENTITIES
  0
INSERT
  2
SKETCH009
  8
0
 62
0
 10
0.0
 20
0.0
 30
0.0
  0
ENDSEC
  0
EOF
