0
SECTION
2
HEADER
9
$INSUNITS
70
1
9
$ACADVER
1
AC1014
9
$HANDSEED
5
FFFF
0
ENDSEC
0
SECTION
2
TABLES
0
TABLE
2
VPORT
5
8
100
AcDbSymbolTable
0
ENDTAB
0
TABLE
2
LTYPE
5
5
100
AcDbSymbolTable
0
LTYPE
5
14
100
AcDbSymbolTableRecord
100
AcDbLinetypeTableRecord
2
BYBLOCK
70
0
0
LTYPE
5
15
100
AcDbSymbolTableRecord
100
AcDbLinetypeTableRecord
2
BYLAYER
70
0
0
ENDTAB
0
TABLE
2
LAYER
5
2
100
AcDbSymbolTable
70
2
0
LAYER
5
50
100
AcDbSymbolTableRecord
100
AcDbLayerTableRecord
2
0
70
0
6
CONTINUOUS
0
ENDTAB
0
TABLE
2
STYLE
5
3
100
AcDbSymbolTable
70
1
0
STYLE
5
11
100
AcDbSymbolTableRecord
100
AcDbTextStyleTableRecord
2
STANDARD
70
0
0
ENDTAB
0
TABLE
2
VIEW
5
6
100
AcDbSymbolTable
70
0
0
ENDTAB
0
TABLE
2
UCS
5
7
100
AcDbSymbolTable
70
0
0
ENDTAB
0
TABLE
2
APPID
5
9
100
AcDbSymbolTable
70
2
0
APPID
5
12
100
AcDbSymbolTableRecord
100
AcDbRegAppTableRecord
2
ACAD
70
0
0
ENDTAB
0
TABLE
2
DIMSTYLE
5
A
100
AcDbSymbolTable
70
1
0
ENDTAB
0
TABLE
2
BLOCK_RECORD
5
1
100
AcDbSymbolTable
70
1
0
BLOCK_RECORD
5
1F
100
AcDbSymbolTableRecord
100
AcDbBlockTableRecord
2
*MODEL_SPACE
0
BLOCK_RECORD
5
1B
100
AcDbSymbolTableRecord
100
AcDbBlockTableRecord
2
*PAPER_SPACE
0
ENDTAB
0
ENDSEC
0
SECTION
2
BLOCKS
0
BLOCK
5
20
100
AcDbEntity
100
AcDbBlockBegin
2
*MODEL_SPACE
0
ENDBLK
5
21
100
AcDbEntity
100
AcDbBlockEnd
0
BLOCK
5
1C
100
AcDbEntity
100
AcDbBlockBegin
2
*PAPER_SPACE
0
ENDBLK
5
1D
100
AcDbEntity
100
AcDbBlockEnd
0
ENDSEC
0
SECTION
2
ENTITIES
0
ARC
5
100
100
AcDbEntity
8
0
100
AcDbCircle
10
0
20
0
30
0
40
1
210
0
220
-0
230
1
100
AcDbArc
50
5.1194852973497422
51
6.9329601859289403
0
ARC
5
101
100
AcDbEntity
8
0
100
AcDbCircle
10
0.97283430595111364
20
0.11829375792752017
30
0
40
0.020000000000000261
210
0
220
-0
230
1
100
AcDbArc
50
6.9329601859289403
51
74.804485742445166
0
SPLINE
5
102
100
AcDbEntity
8
0
100
AcDbSpline
70
0
71
3
72
10
73
6
74
0
42
0.000000001
43
0.0000000001
44
0.0000000001
40
-0.089935794574674391
40
-0.089935794574674391
40
-0.089935794574674391
40
-0.089935794574674391
40
-0.048306526952429707
40
-0.048306526952429707
40
-0
40
-0
40
-0
40
-0
10
0.97807657847152829
20
0.13759449829730153
30
0
10
0.97023664847082891
20
0.13972390104427526
30
0
10
0.95504395890739102
20
0.14365885578304327
30
-8.7419135797256413e-17
10
0.91650748689484529
20
0.14912328211989526
30
-8.7419135797256413e-17
10
0.90183516884482717
20
0.14880617155679146
30
0
10
0.89556963168914139
20
0.14784101150033616
30
0
0
LINE
5
103
100
AcDbEntity
8
0
100
AcDbLine
10
0.89556963168914139
20
0.14784101150033616
30
0
11
0.86700812138120642
21
0.14315482643832134
31
0
0
ARC
5
104
100
AcDbEntity
8
0
100
AcDbCircle
10
0.86384488252348868
20
0.16243423560495773
30
0
40
0.019537187563350999
210
0
220
0
230
1
100
AcDbArc
50
190.59141901124102
51
279.31769609146062
0
ARC
5
105
100
AcDbEntity
8
0
100
AcDbCircle
10
-9.3179554123415024e-05
20
0.00088653880621188401
30
0
40
0.85937500000000244
210
0
220
-0
230
1
100
AcDbArc
50
10.5914190112409
51
13.408580988757629
0
ARC
5
106
100
AcDbEntity
8
0
100
AcDbCircle
10
0.85486088063398458
20
0.20470064139793201
30
0
40
0.019537187563350988
210
0
220
0
230
1
100
AcDbArc
50
104.68230390853768
51
193.40858098875844
0
LINE
5
107
100
AcDbEntity
8
0
100
AcDbLine
10
0.84990900095896926
20
0.22359986322238093
30
0
11
0.87790728214515157
21
0.2309358329691282
31
0
0
SPLINE
5
108
100
AcDbEntity
8
0
100
AcDbSpline
70
0
71
3
72
10
73
6
74
0
42
0.000000001
43
0.0000000001
44
0.0000000001
40
-0.13006587144835269
40
-0.13006587144835269
40
-0.13006587144835269
40
-0.13006587144835269
40
-0.060408561894028316
40
-0.060408561894028316
40
-0
40
-0
40
-0
40
-0
10
0.8779072821451519
20
0.23093583296912826
30
0
10
0.88400569738470491
20
0.23259763297055855
30
0
10
0.89750437368734759
20
0.2382564483624828
30
0
10
0.93053363788242205
20
0.25893626266783731
30
0
10
0.942828741096572
20
0.26873453539023939
30
0
10
0.94897471485542517
20
0.27374196669578843
30
0
0
ARC
5
109
100
AcDbEntity
8
0
100
AcDbCircle
10
0.93634186102911021
20
0.28924715950990504
30
0
40
0.019999999999999383
210
0
220
0
230
1
100
AcDbArc
50
-50.828578427491912
51
17.166542004034934
0
ARC
5
110
100
AcDbEntity
8
0
100
AcDbCircle
10
0
20
0
30
0
40
1.0000000000000031
210
0
220
-0
230
1
100
AcDbArc
50
17.166542004034998
51
18.988505662333424
0
ARC
5
111
100
AcDbEntity
8
0
100
AcDbCircle
10
0.92667219271191426
20
0.31887089433577054
30
0
40
0.019999999999999157
210
0
220
-0
230
1
100
AcDbArc
50
18.988505662333811
51
86.834848127425147
0
SPLINE
5
112
100
AcDbEntity
8
0
100
AcDbSpline
70
0
71
3
72
10
73
6
74
0
42
0.000000001
43
0.0000000001
44
0.0000000001
40
-0.089928206051278742
40
-0.089928206051278742
40
-0.089928206051278742
40
-0.089928206051278742
40
-0.048126516960107883
40
-0.048126516960107883
40
-0
40
-0
40
-0
40
-0
10
0.92777647728996715
20
0.3388403849544786
30
0
10
0.91990988673303264
20
0.33927539627941433
30
0
10
0.90419752889888705
20
0.33997777974229759
30
0
10
0.86531059317199643
20
0.33728970409787701
30
0
10
0.85107409438817627
20
0.33393464097714659
30
0
10
0.84516823229942795
20
0.33169626586485301
30
0
0
LINE
5
113
100
AcDbEntity
8
0
100
AcDbLine
10
0.84516823229942784
20
0.33169626586485301
30
0
11
0.81820517217811572
21
0.32117421328941681
31
0
0
ARC
5
114
100
AcDbEntity
8
0
100
AcDbCircle
10
0.81110264312108848
20
0.33937464676995904
30
0
40
0.019537187563351158
210
0
220
0
230
1
100
AcDbArc
50
202.59141901124059
51
291.31769609146033
0
ARC
5
115
100
AcDbEntity
8
0
100
AcDbCircle
10
-0.00036864469359938816
20
0.0017343314938185657
30
0
40
0.85937500000000233
210
0
220
-0
230
1
100
AcDbArc
50
22.591419011240919
51
25.408580988757627
0
ARC
5
116
100
AcDbEntity
8
0
100
AcDbCircle
10
0.79352728333467548
20
0.37884955116484137
30
0
40
0.019537187563351037
210
0
220
0
230
1
100
AcDbArc
50
116.68230390853861
51
205.40858098875816
0
LINE
5
117
100
AcDbEntity
8
0
100
AcDbLine
10
0.78475424494677537
20
0.39630622597220344
30
0
11
0.81061546263987616
21
0.40930305716045057
31
0
0
SPLINE
5
118
100
AcDbEntity
8
0
100
AcDbSpline
70
0
71
3
72
10
73
6
74
0
42
0.000000001
43
0.0000000001
44
0.0000000001
40
-0.12331681045482495
40
-0.12331681045482495
40
-0.12331681045482495
40
-0.12331681045482495
40
-0.057624210048512071
40
-0.057624210048512071
40
-0
40
-0
40
-0
40
-0
10
0.81061546263987627
20
0.40930305716045068
30
0
10
0.81619805318026506
20
0.41217739746956328
30
0
10
0.82816006512351181
20
0.42046142462486297
30
0
10
0.85623290293938692
20
0.44757794378418386
30
0
10
0.86623469412026888
20
0.45975399464247407
30
0
10
0.87098140980167804
20
0.4656409333584135
30
0
0
ARC
5
119
100
AcDbEntity
8
0
100
AcDbCircle
10
0.85541209508539207
20
0.47819467540073857
30
0
40
0.019999999999999976
210
0
220
0
230
1
100
AcDbArc
50
-38.879686520231985
51
29.20617603244591
0
ARC
5
120
100
AcDbEntity
8
0
100
AcDbCircle
10
0
20
0
30
0
40
0.99999999999999867
210
0
220
-0
230
1
100
AcDbArc
50
29.206176032445775
51
31.044706937658912
0
ARC
5
121
100
AcDbEntity
8
0
100
AcDbCircle
10
0.83962986093045477
20
0.50539261632309118
30
0
40
0.020000000000003171
210
0
220
-0
230
1
100
AcDbArc
50
31.044706937659516
51
98.889314918207177
0
SPLINE
5
122
100
AcDbEntity
8
0
100
AcDbSpline
70
0
71
3
72
10
73
6
74
0
42
0.000000001
43
0.0000000001
44
0.0000000001
40
-0.089774430008124656
40
-0.089774430008124656
40
-0.089774430008124656
40
-0.089774430008124656
40
-0.047784727465269704
40
-0.047784727465269704
40
-0
40
-0
40
-0
40
-0
10
0.83653933816201309
20
0.52515239033540639
30
0
10
0.82912580318411644
20
0.52399287815018525
30
0
10
0.81357763561312835
20
0.52142010445470599
30
0
10
0.77605538154378695
20
0.51065991981762793
30
0
10
0.76291626693692816
20
0.50444789092867925
30
0
10
0.75764256761209736
20
0.5010548016371118
30
0
0
LINE
5
123
100
AcDbEntity
8
0
100
AcDbLine
10
0.75764256761209747
20
0.5010548016371118
30
0
11
0.73345637278782672
21
0.48515674573621115
31
0
0
ARC
5
124
100
AcDbEntity
8
0
100
AcDbCircle
10
0.72272496813299769
20
0.50148275725218983
30
0
40
0.019537187563351033
210
0
220
0
230
1
100
AcDbArc
50
214.59141901124065
51
303.31769609146056
0
ARC
5
125
100
AcDbEntity
8
0
100
AcDbCircle
10
-0.000814356270006855
20
0.0025063254542109052
30
0
40
0.85937500000000244
210
0
220
-0
230
1
100
AcDbArc
50
34.59141901124093
51
37.408580988757649
0
ARC
5
126
100
AcDbEntity
8
0
100
AcDbCircle
10
0.69732637800827479
20
0.53644091750531675
30
0
40
0.019537187563351027
210
0
220
0
230
1
100
AcDbArc
50
128.68230390853807
51
217.40858098875822
0
LINE
5
127
100
AcDbEntity
8
0
100
AcDbLine
10
0.68511560478275046
20
0.5516921048400909
30
0
11
0.70770949967369012
21
0.56978177358119586
31
0
0
SPLINE
5
128
100
AcDbEntity
8
0
100
AcDbSpline
70
0
71
3
72
10
73
6
74
0
42
0.000000001
43
0.0000000001
44
0.0000000001
40
-0.11511342390907101
40
-0.11511342390907101
40
-0.11511342390907101
40
-0.11511342390907101
40
-0.060653252294430429
40
-0.060653252294430429
40
-0
40
-0
40
-0
40
-0
10
0.70770949967369023
20
0.56978177358119586
30
0
10
0.71497714066772267
20
0.5757181708041037
30
0
10
0.72498195381625374
20
0.58799260092156802
30
0
10
0.74406362038826224
20
0.61619940137545859
30
0
10
0.75117375586497048
20
0.62982821552703749
30
0
10
0.75478117757297492
20
0.63692356889835144
30
0
0
ARC
5
129
100
AcDbEntity
8
0
100
AcDbCircle
10
0.73695308404406568
20
0.64598773356612982
30
0
40
0.020000000000003439
210
0
220
0
230
1
100
AcDbArc
50
-26.949707949033282
51
41.236691087656482
0
ARC
5
130
100
AcDbEntity
8
0
100
AcDbCircle
10
0
20
0
30
0
40
0.99999999999998213
210
0
220
-0
230
1
100
AcDbArc
50
41.236691087656332
51
43.099076551061373
0
ARC
5
131
100
AcDbEntity
8
0
100
AcDbCircle
10
0.71556982322262541
20
0.66959676529468981
30
0
40
0.02000000000001461
210
0
220
-0
230
1
100
AcDbArc
50
43.099076551061309
51
110.96186722177472
0
SPLINE
5
132
100
AcDbEntity
8
0
100
AcDbSpline
70
0
71
3
72
10
73
6
74
0
42
0.000000001
43
0.0000000001
44
0.0000000001
40
-0.15088375709585577
40
-0.15088375709585577
40
-0.15088375709585577
40
-0.15088375709585577
40
-0.071387334947224532
40
-0.071387334947224532
40
-0
40
-0
40
-0
40
-0
10
0.7084148925891387
20
0.68827313987944549
30
0
10
0.70099565643233352
20
0.68543082591811177
30
0
10
0.68671938303043512
20
0.67978890143065462
30
0
10
0.65669949494800361
20
0.66376682771319984
30
0
10
0.64347041729475329
20
0.65511117290490462
30
0
10
0.63681792916872315
20
0.64851483813144628
30
0
0
LINE
5
133
100
AcDbEntity
8
0
100
AcDbLine
10
0.63681792916872315
20
0.64851483813144617
30
0
11
0.61646565241355367
21
0.62793560023528627
31
0
0
ARC
5
134
100
AcDbEntity
8
0
100
AcDbCircle
10
0.60257438603933178
20
0.64167366474255827
30
0
40
0.019537187563351044
210
0
220
0
230
1
100
AcDbArc
50
226.59141901124124
51
315.31769609146039
0
ARC
5
135
100
AcDbEntity
8
0
100
AcDbCircle
10
-0.0014108345486953694
20
0.0031687808468817361
30
0
40
0.85937500000000233
210
0
220
-0
230
1
100
AcDbArc
50
46.591419011240923
51
49.408580988757663
0
ARC
5
136
100
AcDbEntity
8
0
100
AcDbCircle
10
0.57046260584070696
20
0.67058724150300419
30
0
40
0.01953718756335095
210
0
220
0
230
1
100
AcDbArc
50
140.68230390853824
51
229.40858098875884
0
LINE
5
137
100
AcDbEntity
8
0
100
AcDbLine
10
0.55534776716130441
20
0.68296639129534431
30
0
11
0.57368687762581261
21
0.7053582922614593
31
0
0
SPLINE
5
138
100
AcDbEntity
8
0
100
AcDbSpline
70
0
71
3
72
10
73
6
74
0
42
0.000000001
43
0.0000000001
44
0.0000000001
40
-0.12993276121093994
40
-0.12993276121093994
40
-0.12993276121093994
40
-0.12993276121093994
40
-0.064256285501471111
40
-0.064256285501471111
40
-0
40
-0
40
-0
40
-0
10
0.57368687762581272
20
0.70535829226145941
30
0
10
0.57890141077243351
20
0.7118538026603809
30
0
10
0.58590244808273739
20
0.72458187016747855
30
0
10
0.59937330897328411
20
0.75775085385342478
30
0
10
0.60339324855257404
20
0.77196666527744406
30
0
10
0.6055804980497691
20
0.78011064479734249
30
0
0
ARC
5
139
100
AcDbEntity
8
0
100
AcDbCircle
10
0.58626499498934204
20
0.78529825903925343
30
0
40
0.020000000000006124
210
0
220
0
230
1
100
AcDbArc
50
-15.033318973925814
51
53.256793916410118
0
ARC
5
140
100
AcDbEntity
8
0
100
AcDbCircle
10
0
20
0
30
0
40
0.99999999999996703
210
0
220
-0
230
1
100
AcDbArc
50
53.256793916410075
51
55.14920007457151
0
ARC
5
141
100
AcDbEntity
8
0
100
AcDbCircle
10
0.56001256756362783
20
0.8042300194414036
30
0
40
0.020000000000037019
210
0
220
-0
230
1
100
AcDbArc
50
55.149200074571887
51
123.04754022332315
0
SPLINE
5
142
100
AcDbEntity
8
0
100
AcDbSpline
70
0
71
3
72
10
73
6
74
0
42
0.000000001
43
0.0000000001
44
0.0000000001
40
-0.12525601355626292
40
-0.12525601355626292
40
-0.12525601355626292
40
-0.12525601355626292
40
-0.063364800498992263
40
-0.063364800498992263
40
-0
40
-0
40
-0
40
-0
10
0.54910587317932669
20
0.82099438693939564
30
0
10
0.54201530421380828
20
0.81638134866240719
30
0
10
0.52977186575092428
20
0.80817763323450331
30
-4.3709567898628207e-17
10
0.5024563562636073
20
0.78516170485074077
30
-4.3709567898628207e-17
10
0.49253344628999257
20
0.77458644726313075
30
0
10
0.48797493345022114
20
0.76763166416129236
30
0
0
LINE
5
143
100
AcDbEntity
8
0
100
AcDbLine
10
0.48797493345022114
20
0.76763166416129225
30
0
11
0.47234606691941339
21
0.74327065571607509
31
0
0
ARC
5
144
100
AcDbEntity
8
0
100
AcDbCircle
10
0.4559020538240437
20
0.75382035387312507
30
0
40
0.019537187563351027
210
0
220
0
230
1
100
AcDbArc
50
238.59141901124076
51
327.31769609146039
0
ARC
5
145
100
AcDbEntity
8
0
100
AcDbCircle
10
-0.0021320105666659058
20
0.0036927451923576839
30
0
40
0.85937500000000233
210
0
220
-0
230
1
100
AcDbArc
50
58.591419011240966
51
61.408580988757684
0
ARC
5
146
100
AcDbEntity
8
0
100
AcDbCircle
10
0.41848052243561434
20
0.77542568509372356
30
0
40
0.019537187563350961
210
0
220
0
230
1
100
AcDbArc
50
152.68230390853844
51
241.40858098875819
0
LINE
5
147
100
AcDbEntity
8
0
100
AcDbLine
10
0.40112220928166648
20
0.7843917690959531
30
0
11
0.41440502819162844
21
0.81010726876659722
31
0
0
SPLINE
5
148
100
AcDbEntity
8
0
100
AcDbSpline
70
0
71
3
72
10
73
6
74
0
42
0.000000001
43
0.0000000001
44
0.0000000001
40
-0.12653788481185235
40
-0.12653788481185235
40
-0.12653788481185235
40
-0.12653788481185235
40
-0.062736217389261772
40
-0.062736217389261772
40
-0
40
-0
40
-0
40
-0
10
0.41440502819162844
20
0.81010726876659722
30
0
10
0.41811487485501009
20
0.81746518152244951
30
0
10
0.42228504221324226
20
0.83121411426500214
30
0
10
0.42857314302666921
20
0.86617910060368364
30
0
10
0.42956436688483907
20
0.88077991739272465
30
0
10
0.43001371244971115
20
0.88900074546597252
30
0
0
ARC
5
149
100
AcDbEntity
8
0
100
AcDbCircle
10
0.41004352217469137
20
0.89009230415869456
30
0
40
0.020000000000003761
210
0
220
0
230
1
100
AcDbArc
50
-3.1286398619287374
51
65.265644367764622
0
ARC
5
150
100
AcDbEntity
8
0
100
AcDbCircle
10
0
20
0
30
0
40
0.99999999999997979
210
0
220
-0
230
1
100
AcDbArc
50
65.265644367764722
51
67.192847126590024
0
ARC
5
151
100
AcDbEntity
8
0
100
AcDbCircle
10
0.3798780565281783
20
0.90337847116718528
30
0
40
0.020000000000006787
210
0
220
-0
230
1
100
AcDbArc
50
67.192847126589996
51
135.14516664623235
0
SPLINE
5
152
100
AcDbEntity
8
0
100
AcDbSpline
70
0
71
3
72
10
73
6
74
0
42
0.000000001
43
0.0000000001
44
0.0000000001
40
-0.12723722821056707
40
-0.12723722821056707
40
-0.12723722821056707
40
-0.12723722821056707
40
-0.063363844469431094
40
-0.063363844469431094
40
-0
40
-0
40
-0
40
-0
10
0.36570013533118911
20
0.91748473043504253
30
0
10
0.36042770196208285
20
0.91218551229316946
30
0
10
0.34988604622950598
20
0.90134371659030632
30
0
10
0.32813457565221132
20
0.87331594187147799
30
0
10
0.32063160582256939
20
0.86094975842164734
30
0
10
0.3176187335974256
20
0.85319930284319845
30
0
0
LINE
5
153
100
AcDbEntity
8
0
100
AcDbLine
10
0.3176187335974256
20
0.85319930284319845
30
0
11
0.30739633375399811
21
0.82612121681506812
31
0
0
ARC
5
154
100
AcDbEntity
8
0
100
AcDbCircle
10
0.28911825621687759
20
0.83302147618936462
30
0
40
0.019537187563350988
210
0
220
0
230
1
100
AcDbArc
50
250.59141901124136
51
339.31769609146073
0
ARC
5
155
100
AcDbEntity
8
0
100
AcDbCircle
10
-0.0029463654713466742
20
0.0040553187344815698
30
0
40
0.85937500000000266
210
0
220
-0
230
1
100
AcDbArc
50
70.591419011241015
51
73.408580988757748
0
ARC
5
156
100
AcDbEntity
8
0
100
AcDbCircle
10
0.24802247412874812
20
0.84637430522189372
30
0
40
0.019537187563351009
210
0
220
0
230
1
100
AcDbArc
50
164.68230390853839
51
253.40858098875836
0
LINE
5
157
100
AcDbEntity
8
0
100
AcDbLine
10
0.2291793280795103
20
0.85153546253907086
30
0
11
0.23682533251052412
21
0.87945067018197842
31
0
0
SPLINE
5
158
100
AcDbEntity
8
0
100
AcDbSpline
70
0
71
3
72
10
73
6
74
0
42
0.000000001
43
0.0000000001
44
0.0000000001
40
-0.22923439468535611
40
-0.22923439468535611
40
-0.22923439468535611
40
-0.22923439468535611
40
-0.098871962160759233
40
-0.098871962160759233
40
-0
40
-0
40
-0
40
-0
10
0.23682533251052421
20
0.87945067018197864
30
0
10
0.23890978518830877
20
0.88736395893291342
30
0
10
0.24012193011382238
20
0.90156114650215891
30
-4.3709567898628207e-17
10
0.23919469420675959
20
0.93252908413434921
30
-4.3709567898628207e-17
10
0.23781145785861393
20
0.94610657738909043
30
0
10
0.23583506523390621
20
0.9589304957534186
30
0
0
ARC
5
159
100
AcDbEntity
8
0
100
AcDbCircle
10
0.21606843861909389
20
0.95588410899685339
30
0
40
0.019999999999999542
210
0
220
-0
230
1
100
AcDbArc
50
8.7613595816154568
51
77.262890306480216
0
ARC
5
160
100
AcDbEntity
8
0
100
AcDbCircle
10
0
20
0
30
0
40
1.0000000000000007
210
0
220
-0
230
1
100
AcDbArc
50
77.262890306480372
51
79.22807034128985
0
ARC
5
161
100
AcDbEntity
8
0
100
AcDbCircle
10
0.18316204906614503
20
0.96273135597729786
30
0
40
0.02000000000000246
210
0
220
-0
230
1
100
AcDbArc
50
79.228070341289751
51
147.25853325443521
0
SPLINE
5
162
100
AcDbEntity
8
0
100
AcDbSpline
70
0
71
3
72
10
73
6
74
0
42
0.000000001
43
0.0000000001
44
0.0000000001
40
-0.1094111778292903
40
-0.1094111778292903
40
-0.1094111778292903
40
-0.1094111778292903
40
-0.062224115412118489
40
-0.062224115412118489
40
-0
40
-0
40
-0
40
-0
10
0.16633965761022171
20
0.97354834010891722
30
0
10
0.15935286120612663
20
0.96268259206854168
30
0
10
0.15257022396728165
20
0.95083880609469895
30
0
10
0.13916060609478348
20
0.92297296150984864
30
0
10
0.13450631248410558
20
0.90953790987181948
30
0
10
0.13319471300364744
20
0.90147803776767887
30
0
0
LINE
5
163
100
AcDbEntity
8
0
100
AcDbLine
10
0.13319471300364744
20
0.90147803776767887
30
0
11
0.12882554777327448
21
0.87286631645113721
31
0
0
ARC
5
164
100
AcDbEntity
8
0
100
AcDbCircle
10
0.10951224549072253
20
0.87581556259690552
30
0
40
0.019537187563351033
210
0
220
0
230
1
100
AcDbArc
50
262.59141901124104
51
351.31769609146056
0
ARC
5
165
100
AcDbEntity
8
0
100
AcDbCircle
10
-0.0038183080456947326
20
0.0042406552696416912
30
0
40
0.85937500000000233
210
0
220
-0
230
1
100
AcDbArc
50
82.59141901124103
51
85.408580988757762
0
ARC
5
166
100
AcDbEntity
8
0
100
AcDbCircle
10
0.066538295579585766
20
0.88033230673866159
30
0
40
0.019537187563350999
210
0
220
0
230
1
100
AcDbArc
50
176.68230390853898
51
265.40858098875839
0
LINE
5
167
100
AcDbEntity
8
0
100
AcDbLine
10
0.047033852536856373
20
0.88146297003004492
30
0
11
0.048708875405686809
21
0.91035785711919348
31
0
0
SPLINE
5
168
100
AcDbEntity
8
0
100
AcDbSpline
70
0
71
3
72
10
73
6
74
0
42
0.000000001
43
0.0000000001
44
0.0000000001
40
-0.17654259401132105
40
-0.17654259401132105
40
-0.17654259401132105
40
-0.17654259401132105
40
-0.081571403088255626
40
-0.081571403088255626
40
-0
40
-0
40
-0
40
-0
10
0.048708875405686851
20
0.91035785711919348
30
0
10
0.049097524581615676
20
0.91842803013228591
30
0
10
0.047371669518948702
20
0.93238720111269036
30
4.3709567898628207e-17
10
0.039754023091114754
20
0.9638522059175163
30
4.3709567898628207e-17
10
0.035339487933090885
20
0.97694392305423639
30
0
10
0.031567808782762781
20
0.98696238118283852
30
0
0
ARC
5
169
100
AcDbEntity
8
0
100
AcDbCircle
10
0.012850305331867486
20
0.9799157462011101
30
0
40
0.019999999999999858
210
0
220
-0
230
1
100
AcDbArc
50
20.630001794221986
51
89.248684325008853
0
ARC
5
170
100
AcDbEntity
8
0
100
AcDbCircle
10
0
20
0
30
0
40
1.0000000000000004
210
0
220
-0
230
1
100
AcDbArc
50
89.248684325008853
51
91.253290152537446
0
ARC
5
171
100
AcDbEntity
8
0
100
AcDbCircle
10
-0.021434849421319339
20
0.97976555727902537
30
0
40
0.020000000000003192
210
0
220
0
230
1
100
AcDbArc
50
91.25329015253908
51
159.3941752797011
0
SPLINE
5
172
100
AcDbEntity
8
0
100
AcDbSpline
70
0
71
3
72
10
73
6
74
0
42
0.000000001
43
0.0000000001
44
0.0000000001
40
-0.11421257884111824
40
-0.11421257884111824
40
-0.11421257884111824
40
-0.11421257884111824
40
-0.061438501248362892
40
-0.061438501248362892
40
-0
40
-0
40
-0
40
-0
10
-0.040155324671069914
20
0.98680429341724707
30
-8.7419135797256413e-17
10
-0.043909250159970811
20
0.97682021846055245
30
-8.7419135797256413e-17
10
-0.048312903040243764
20
0.96374408732120898
30
0
10
-0.0559052555185299
20
0.9323411466846272
30
0
10
-0.05762475805208056
20
0.91841131835558554
30
0
10
-0.057236913666529797
20
0.91035785655146106
30
0
0
LINE
5
173
100
AcDbEntity
8
0
100
AcDbLine
10
-0.057236913666529797
20
0.91035785655146084
30
0
11
-0.055561890797699909
21
0.88146296946231262
31
0
0
ARC
5
174
100
AcDbEntity
8
0
100
AcDbCircle
10
-0.075066333840429308
20
0.88033230617092939
30
0
40
0.019537187563350919
210
0
220
0
230
1
100
AcDbArc
50
-85.408580988758885
51
3.3176960914607019
0
ARC
5
175
100
AcDbEntity
8
0
100
AcDbCircle
10
-0.0047097302151663896
20
0.0042406547019081843
30
0
40
0.85937500000000244
210
0
220
0
230
1
100
AcDbArc
50
94.591419011241058
51
97.408580988757805
0
ARC
5
176
100
AcDbEntity
8
0
100
AcDbCircle
10
-0.11804028375156617
20
0.87581556202917421
30
0
40
0.019537187563350999
210
0
220
0
230
1
100
AcDbArc
50
188.68230390853842
51
277.40858098875839
0
LINE
5
177
100
AcDbEntity
8
0
100
AcDbLine
10
-0.13735358603411818
20
0.87286631588340624
30
0
11
-0.14172275126449058
21
0.90147803719994801
31
0
0
SPLINE
5
178
100
AcDbEntity
8
0
100
AcDbSpline
70
0
71
3
72
10
73
6
74
0
42
0.000000001
43
0.0000000001
44
0.0000000001
40
-0.17330765762256611
40
-0.17330765762256611
40
-0.17330765762256611
40
-0.17330765762256611
40
-0.080089133201251217
40
-0.080089133201251217
40
-0
40
-0
40
-0
40
-0
10
-0.14172275126449058
20
0.90147803719994823
30
0
10
-0.14300496929150011
20
0.90935735818269003
30
0
10
-0.14752458102364577
20
0.92249315954010846
30
4.3709567898628207e-17
10
-0.16128714259586771
20
0.95134111022809131
30
4.3709567898628207e-17
10
-0.16823107818187077
20
0.96313044281047078
30
0
10
-0.17387495533453809
20
0.9719969439331213
30
0
0
ARC
5
179
100
AcDbEntity
8
0
100
AcDbCircle
10
-0.19074684190739508
20
0.96125732366643435
30
0
40
0.019999999999999546
210
0
220
-0
230
1
100
AcDbArc
50
32.478358857972538
51
101.22367282293332
0
ARC
5
180
100
AcDbEntity
8
0
100
AcDbCircle
10
0
20
0
30
0
40
1.0000000000000004
210
0
220
0
230
1
100
AcDbArc
50
101.22367282293335
51
103.26737185397126
0
ARC
5
181
100
AcDbEntity
8
0
100
AcDbCircle
10
-0.22490559502569729
20
0.95384352664687022
30
0
40
0.019999999999999241
210
0
220
0
230
1
100
AcDbArc
50
103.26737185397107
51
171.54890998386153
0
SPLINE
5
182
100
AcDbEntity
8
0
100
AcDbSpline
70
0
71
3
72
10
73
6
74
0
42
0.000000001
43
0.0000000001
44
0.0000000001
40
-0.11287149454108458
40
-0.11287149454108458
40
-0.11287149454108458
40
-0.11287149454108458
40
-0.060711201730387764
40
-0.060711201730387764
40
-0
40
-0
40
-0
40
-0
10
-0.2446884286069238
20
0.95678282851933816
30
0
10
-0.24622951961639228
20
0.9464105876617227
30
0
10
-0.24776904904839914
20
0.93284398096995258
30
0
10
-0.24859655749000825
20
0.90096514475341372
30
0
10
-0.24738283614436349
20
0.88715520770749667
30
0
10
-0.24535337053529088
20
0.87945066850359566
30
0
0
LINE
5
183
100
AcDbEntity
8
0
100
AcDbLine
10
-0.24535337053529088
20
0.87945066850359555
30
0
11
-0.23770736610427759
21
0.85153546086068765
31
0
0
ARC
5
184
100
AcDbEntity
8
0
100
AcDbCircle
10
-0.25655051215351549
20
0.84637430354351084
30
0
40
0.019537187563351096
210
0
220
0
230
1
100
AcDbArc
50
-73.408580988759027
51
15.317696091460578
0
ARC
5
185
100
AcDbEntity
8
0
100
AcDbCircle
10
-0.0055816725534375815
20
0.0040553170560937305
30
0
40
0.85937500000000233
210
0
220
0
230
1
100
AcDbArc
50
106.59141901124109
51
109.40858098875782
0
ARC
5
186
100
AcDbEntity
8
0
100
AcDbCircle
10
-0.29764629424164518
20
0.83302147451098263
30
0
40
0.019537187563350999
210
0
220
0
230
1
100
AcDbArc
50
200.6823039085385
51
289.40858098875827
0
LINE
5
187
100
AcDbEntity
8
0
100
AcDbLine
10
-0.31592437177876581
20
0.82612121513668635
30
0
11
-0.32614677162219274
21
0.85319930116481701
31
0
0
SPLINE
5
188
100
AcDbEntity
8
0
100
AcDbSpline
70
0
71
3
72
10
73
6
74
0
42
0.000000001
43
0.0000000001
44
0.0000000001
40
-0.12973575243350965
40
-0.12973575243350965
40
-0.12973575243350965
40
-0.12973575243350965
40
-0.063249747729609923
40
-0.063249747729609923
40
-0
40
-0
40
-0
40
-0
10
-0.3261467716221928
20
0.85319930116481701
30
0
10
-0.32901794433948389
20
0.86058524220065269
30
0
10
-0.33610594444500286
20
0.87239159917209319
30
4.3709567898628207e-17
10
-0.35613302768647614
20
0.89857498681457781
30
4.3709567898628207e-17
10
-0.3657806318958759
20
0.90886045053490705
30
0
10
-0.37157950547741408
20
0.91479940917869118
30
0
0
ARC
5
189
100
AcDbEntity
8
0
100
AcDbCircle
10
-0.38588940124459964
20
0.90082704777725786
30
0
40
0.019999999999999511
210
0
220
-0
230
1
100
AcDbArc
50
44.316236452322414
51
113.18895350901163
0
ARC
5
190
100
AcDbEntity
8
0
100
AcDbCircle
10
0
20
0
30
0
40
1.0000000000000029
210
0
220
0
230
1
100
AcDbArc
50
113.18895350901164
51
115.26969112529905
0
ARC
5
191
100
AcDbEntity
8
0
100
AcDbCircle
10
-0.41834196223270009
20
0.88622232122379474
30
0
40
0.020000000000001669
210
0
220
0
230
1
100
AcDbArc
50
115.26969112529946
51
183.71210356580883
0
SPLINE
5
192
100
AcDbEntity
8
0
100
AcDbSpline
70
0
71
3
72
10
73
6
74
0
42
0.000000001
43
0.0000000001
44
0.0000000001
40
-0.1177613405952064
40
-0.1177613405952064
40
-0.1177613405952064
40
-0.1177613405952064
40
-0.060285651456552354
40
-0.060285651456552354
40
-0
40
-0
40
-0
40
-0
10
-0.43830000150759607
20
0.88492745895246328
30
0
10
-0.43776792891929955
20
0.87672648974569445
30
0
10
-0.43657774931111792
20
0.86266865291051109
30
-4.3709567898628207e-17
10
-0.43052014487412671
20
0.83031529632019907
30
-4.3709567898628207e-17
10
-0.42649490379174954
20
0.8171716263617711
30
0
10
-0.42293306575455974
20
0.81010726605091743
30
0
0
LINE
5
193
100
AcDbEntity
8
0
100
AcDbLine
10
-0.42293306575455974
20
0.81010726605091743
30
0
11
-0.40965024684459828
21
0.78439176638027308
31
0
0
ARC
5
194
100
AcDbEntity
8
0
100
AcDbCircle
10
-0.42700855999854631
20
0.77542568237804377
30
0
40
0.01953718756335102
210
0
220
0
230
1
100
AcDbArc
50
-61.408580988758914
51
27.317696091460764
0
ARC
5
195
100
AcDbEntity
8
0
100
AcDbCircle
10
-0.0063960269962823049
20
0.0036927424766691149
30
0
40
0.85937500000000244
210
0
220
0
230
1
100
AcDbArc
50
118.59141901124109
51
121.40858098875782
0
ARC
5
196
100
AcDbEntity
8
0
100
AcDbCircle
10
-0.46443009138697616
20
0.75382035115744628
30
0
40
0.019537187563350988
210
0
220
0
230
1
100
AcDbArc
50
212.68230390853898
51
301.40858098875793
0
LINE
5
197
100
AcDbEntity
8
0
100
AcDbLine
10
-0.48087410448234608
20
0.74327065300039641
30
0
11
-0.49650297101315327
21
0.7676316614456139
31
0
0
SPLINE
5
198
100
AcDbEntity
8
0
100
AcDbSpline
70
0
71
3
72
10
73
6
74
0
42
0.000000001
43
0.0000000001
44
0.0000000001
40
-0.12537478051341661
40
-0.12537478051341661
40
-0.12537478051341661
40
-0.12537478051341661
40
-0.061281800255540628
40
-0.061281800255540628
40
-0
40
-0
40
-0
40
-0
10
-0.49650297101315338
20
0.76763166144561412
30
0
10
-0.50080674514219792
20
0.77419779751648976
30
0
10
-0.51009426220945864
20
0.78417743140558271
30
-8.7419135797256413e-17
10
-0.53481219949125669
20
0.80542312385987869
30
-8.7419135797256413e-17
10
-0.54633091421854396
20
0.81346621302349353
30
0
10
-0.55301049915237654
20
0.81794512189107482
30
0
0
ARC
5
199
100
AcDbEntity
8
0
100
AcDbCircle
10
-0.56414897270526398
20
0.80133384840251765
30
0
40
0.020000000000000458
210
0
220
-0
230
1
100
AcDbArc
50
56.156684603393671
51
125.14602085980161
0
ARC
5
200
100
AcDbEntity
8
0
100
AcDbCircle
10
0
20
0
30
0
40
0.99999999999999678
210
0
220
0
230
1
100
AcDbArc
50
125.14602085980127
51
127.26016776603582
0
ARC
5
201
100
AcDbEntity
8
0
100
AcDbCircle
10
-0.59332653306201244
20
0.77997668244929441
30
0
40
0.0200000000000027
210
0
220
0
230
1
100
AcDbArc
50
127.26016776603595
51
195.87019692063677
0
SPLINE
5
202
100
AcDbEntity
8
0
100
AcDbSpline
70
0
71
3
72
10
73
6
74
0
42
0.000000001
43
0.0000000001
44
0.0000000001
40
-0.1168709176256206
40
-0.1168709176256206
40
-0.1168709176256206
40
-0.1168709176256206
40
-0.059726765994453174
40
-0.059726765994453174
40
-0
40
-0
40
-0
40
-0
10
-0.6125642067134478
20
0.77450750403925051
30
0
10
-0.61036683161204375
20
0.7667783019687926
30
0
10
-0.60628490686541359
20
0.75337949867996401
30
-8.7419135797256413e-17
10
-0.59373293566379715
20
0.72336595721071639
30
-8.7419135797256413e-17
10
-0.58712176572501129
20
0.71147053340984667
30
0
10
-0.58221491452133578
20
0.70535828862717065
30
0
0
LINE
5
203
100
AcDbEntity
8
0
100
AcDbLine
10
-0.58221491452133589
20
0.70535828862717065
30
0
11
-0.56387580405682802
21
0.68296638766105511
31
0
0
ARC
5
204
100
AcDbEntity
8
0
100
AcDbCircle
10
-0.5789906427362308
20
0.67058723786871521
30
0
40
0.01953718756335102
210
0
220
0
230
1
100
AcDbArc
50
-49.408580988758644
51
39.31769609146086
0
ARC
5
205
100
AcDbEntity
8
0
100
AcDbCircle
10
-0.0071172023468420807
20
0.0031687772125810571
30
0
40
0.85937500000000266
210
0
220
0
230
1
100
AcDbArc
50
130.59141901124113
51
133.40858098875788
0
ARC
5
206
100
AcDbEntity
8
0
100
AcDbCircle
10
-0.61110242293485628
20
0.64167366110826995
30
0
40
0.019537187563351013
210
0
220
0
230
1
100
AcDbArc
50
224.6823039085385
51
313.40858098875924
0
LINE
5
207
100
AcDbEntity
8
0
100
AcDbLine
10
-0.6249936893090785
20
0.62793559660099818
30
0
11
-0.64534596606424721
21
0.64851483449715852
31
0
0
SPLINE
5
208
100
AcDbEntity
8
0
100
AcDbSpline
70
0
71
3
72
10
73
6
74
0
42
0.000000001
43
0.0000000001
44
0.0000000001
40
-0.21823537770987572
40
-0.21823537770987572
40
-0.21823537770987572
40
-0.21823537770987572
40
-0.094081124033265726
40
-0.094081124033265726
40
-0
40
-0
40
-0
40
-0
10
-0.64534596606424754
20
0.64851483449715874
30
0
10
-0.65084825161847182
20
0.65397067550690247
30
0
10
-0.66185483179860383
20
0.66171935642505098
30
0
10
-0.68735615348564383
20
0.67572160738910292
30
0
10
-0.69891726596918335
20
0.6810708256881669
30
0
10
-0.71036593922596336
20
0.68569321857776289
30
0
0
ARC
5
209
100
AcDbEntity
8
0
100
AcDbCircle
10
-0.71785365457387706
20
0.66714775770808898
30
0
40
0.019999999999999751
210
0
220
-0
230
1
100
AcDbArc
50
68.013645395499438
51
137.09670322282071
0
ARC
5
210
100
AcDbEntity
8
0
100
AcDbCircle
10
0
20
0
30
0
40
1.0000000000000011
210
0
220
0
230
1
100
AcDbArc
50
137.09670322282091
51
139.23926628335201
0
ARC
5
211
100
AcDbEntity
8
0
100
AcDbCircle
10
-0.7422938302513522
20
0.63984362899913017
30
0
40
0.020000000000000212
210
0
220
0
230
1
100
AcDbArc
50
139.23926628335457
51
208.00930089110787
0
SPLINE
5
212
100
AcDbEntity
8
0
100
AcDbSpline
70
0
71
3
72
10
73
6
74
0
42
0.000000001
43
0.0000000001
44
0.0000000001
40
-0.10363913175254214
40
-0.10363913175254214
40
-0.10363913175254214
40
-0.10363913175254214
40
-0.058960985473802248
40
-0.058960985473802248
40
-0
40
-0
40
-0
40
-0
10
-0.75995125767847715
20
0.63045133126876507
30
0
10
-0.75414623437831985
20
0.61953794451533017
30
0
10
-0.74764056127401357
20
0.60864684278154646
30
-8.7419135797256413e-17
10
-0.73107465928344739
20
0.58479683466872934
30
-8.7419135797256413e-17
10
-0.72223013619366516
20
0.57467668031538954
30
0
10
-0.71623753572539961
20
0.56978176918713408
30
0
0
LINE
5
213
100
AcDbEntity
8
0
100
AcDbLine
10
-0.71623753572539961
20
0.56978176918713397
30
0
11
-0.69364364083446017
21
0.55169210044602879
31
0
0
ARC
5
214
100
AcDbEntity
8
0
100
AcDbCircle
10
-0.70585441405998495
20
0.53644091311125486
30
0
40
0.019537187563351013
210
0
220
0
230
1
100
AcDbArc
50
-37.408580988758779
51
51.317696091460526
0
ARC
5
215
100
AcDbEntity
8
0
100
AcDbCircle
10
-0.0077136797817141606
20
0.0025063210601344956
30
0
40
0.85937500000000244
210
0
220
0
230
1
100
AcDbArc
50
142.59141901124116
51
145.40858098875788
0
ARC
5
216
100
AcDbEntity
8
0
100
AcDbCircle
10
-0.7312530041847084
20
0.50148275285812827
30
0
40
0.019537187563350981
210
0
220
0
230
1
100
AcDbArc
50
236.68230390853873
51
325.40858098875873
0
LINE
5
217
100
AcDbEntity
8
0
100
AcDbLine
10
-0.74198440883953765
20
0.4851567413421497
30
0
11
-0.76617060366380796
21
0.50105479724305091
31
0
0
SPLINE
5
218
100
AcDbEntity
8
0
100
AcDbSpline
70
0
71
3
72
10
73
6
74
0
42
0.000000001
43
0.0000000001
44
0.0000000001
40
-0.21876958018163944
40
-0.21876958018163944
40
-0.21876958018163944
40
-0.21876958018163944
40
-0.094321829329751944
40
-0.094321829329751944
40
-0
40
-0
40
-0
40
-0
10
-0.76617060366380807
20
0.50105479724305091
30
0
10
-0.77263318534595316
20
0.50521281144729224
30
0
10
-0.78490147050510684
20
0.51046833607614395
30
0
10
-0.81252715361901118
20
0.51882950789746785
30
0
10
-0.82470925028569186
20
0.52162436507581444
30
0
10
-0.83689557265661574
20
0.5237953567145287
30
0
0
ARC
5
219
100
AcDbEntity
8
0
100
AcDbCircle
10
-0.84040334098635083
20
0.50410537039292669
30
0
40
0.019999999999999137
210
0
220
-0
230
1
100
AcDbArc
50
79.898737667342715
51
149.04309340399763
0
ARC
5
220
100
AcDbEntity
8
0
100
AcDbCircle
10
0
20
0
30
0
40
1.0000000000000053
210
0
220
0
230
1
100
AcDbArc
50
149.0430934039976
51
151.20796415688548
0
ARC
5
221
100
AcDbEntity
8
0
100
AcDbCircle
10
-0.85884616299063521
20
0.4719992249106601
30
0
40
0.01999999999999973
210
0
220
0
230
1
100
AcDbArc
50
151.2079641568875
51
220.11844887594339
0
SPLINE
5
222
100
AcDbEntity
8
0
100
AcDbSpline
70
0
71
3
72
10
73
6
74
0
42
0.000000001
43
0.0000000001
44
0.0000000001
40
-0.10278298469703151
40
-0.10278298469703151
40
-0.10278298469703151
40
-0.10278298469703151
40
-0.058462861866881911
40
-0.058462861866881911
40
-0
40
-0
40
-0
40
-0
10
-0.87414044214191045
20
0.45911182698699643
30
0
10
-0.86618125941986579
20
0.44966616828337708
30
0
10
-0.85767731189101126
20
0.44052298268465162
30
-8.7419135797256413e-17
10
-0.83663516406728811
20
0.42079756227117554
30
-8.7419135797256413e-17
10
-0.82596473544568605
20
0.41281514187188512
30
0
10
-0.81914349770824568
20
0.40930305219865687
30
0
0
LINE
5
223
100
AcDbEntity
8
0
100
AcDbLine
10
-0.81914349770824568
20
0.40930305219865687
30
0
11
-0.79328228001514522
21
0.3963062210104093
31
0
0
ARC
5
224
100
AcDbEntity
8
0
100
AcDbCircle
10
-0.80205531840304567
20
0.37884954620304739
30
0
40
0.019537187563351027
210
0
220
0
230
1
100
AcDbArc
50
-25.408580988758455
51
63.317696091460299
0
ARC
5
225
100
AcDbEntity
8
0
100
AcDbCircle
10
-0.0081593903747783497
20
0.0017343265320086483
30
0
40
0.85937500000000266
210
0
220
0
230
1
100
AcDbArc
50
154.59141901124121
51
157.40858098875796
0
ARC
5
226
100
AcDbEntity
8
0
100
AcDbCircle
10
-0.81963067818945934
20
0.33937464180816529
30
0
40
0.019537187563351006
210
0
220
0
230
1
100
AcDbArc
50
248.68230390853859
51
337.40858098875833
0
LINE
5
227
100
AcDbEntity
8
0
100
AcDbLine
10
-0.82673320724648691
20
0.32117420832762322
30
0
11
-0.85369626736779902
21
0.33169626090305981
31
0
0
SPLINE
5
228
100
AcDbEntity
8
0
100
AcDbSpline
70
0
71
3
72
10
73
6
74
0
42
0.000000001
43
0.0000000001
44
0.0000000001
40
-0.21654427445925095
40
-0.21654427445925095
40
-0.21654427445925095
40
-0.21654427445925095
40
-0.09341401058269734
40
-0.09341401058269734
40
-0
40
-0
40
-0
40
-0
10
-0.85369626736779913
20
0.33169626090305981
30
0
10
-0.8608282891952268
20
0.3343993616390728
30
0
10
-0.87382400791178139
20
0.33698194770368389
30
-4.3709567898628207e-17
10
-0.90248154689815197
20
0.33943385381255847
30
-4.3709567898628207e-17
10
-0.91492039335421771
20
0.33963844124710352
30
0
10
-0.92717327224271928
20
0.33924930710125911
30
0
0
ARC
5
229
100
AcDbEntity
8
0
100
AcDbCircle
10
-0.92653842053810442
20
0.31925938555781214
30
0
40
0.02000000000000041
210
0
220
0
230
1
100
AcDbArc
50
91.819021723678802
51
160.98747234371123
0
ARC
5
230
100
AcDbEntity
8
0
100
AcDbCircle
10
0
20
0
30
0
40
0.99999999999999833
210
0
220
0
230
1
100
AcDbArc
50
160.98747234371115
51
163.16769342515744
0
ARC
5
231
100
AcDbEntity
8
0
100
AcDbCircle
10
-0.93801324555620325
20
0.2837801105805528
30
0
40
0.020000000000003824
210
0
220
0
230
1
100
AcDbArc
50
163.16769342515855
51
232.19146724081355
0
SPLINE
5
232
100
AcDbEntity
8
0
100
AcDbSpline
70
0
71
3
72
10
73
6
74
0
42
0.000000001
43
0.0000000001
44
0.0000000001
40
-0.10211374639090284
40
-0.10211374639090284
40
-0.10211374639090284
40
-0.10211374639090284
40
-0.05806045177255504
40
-0.05806045177255504
40
-0
40
-0
40
-0
40
-0
10
-0.95027373996594866
20
0.26797883604877482
30
0
10
-0.9406002269075856
20
0.26047298248408202
30
0
10
-0.93042299518421512
20
0.25333236614515453
30
-4.3709567898628207e-17
10
-0.90580753064914266
20
0.23848165875138738
30
-4.3709567898628207e-17
10
-0.89378674607514774
20
0.23293907043469461
30
0
10
-0.88643531613363169
20
0.23093582765645734
30
0
0
LINE
5
233
100
AcDbEntity
8
0
100
AcDbLine
10
-0.88643531613363169
20
0.23093582765645732
30
0
11
-0.85843703494744938
21
0.2235998579097094
31
0
0
ARC
5
234
100
AcDbEntity
8
0
100
AcDbCircle
10
-0.86338891462246514
20
0.20470063608526062
30
0
40
0.019537187563350992
210
0
220
0
230
1
100
AcDbArc
50
-13.408580988758741
51
75.317696091460945
0
ARC
5
235
100
AcDbEntity
8
0
100
AcDbCircle
10
-0.0084348544343610232
20
0.00088653349352336389
30
0
40
0.85937500000000244
210
0
220
0
230
1
100
AcDbArc
50
166.59141901124121
51
169.40858098875796
0
ARC
5
236
100
AcDbEntity
8
0
100
AcDbCircle
10
-0.8723729165119698
20
0.16243423029228643
30
0
40
0.019537187563350995
210
0
220
0
230
1
100
AcDbArc
50
260.68230390853864
51
349.40858098875879
0
LINE
5
237
100
AcDbEntity
8
0
100
AcDbLine
10
-0.87553615536968776
20
0.14315482112565012
30
0
11
-0.90409766567762284
21
0.14784100618766552
31
0
0
SPLINE
5
238
100
AcDbEntity
8
0
100
AcDbSpline
70
0
71
3
72
10
73
6
74
0
42
0.000000001
43
0.0000000001
44
0.0000000001
40
-0.21544257922479651
40
-0.21544257922479651
40
-0.21544257922479651
40
-0.21544257922479651
40
-0.092962411638986442
40
-0.092962411638986442
40
-0
40
-0
40
-0
40
-0
10
-0.90409766567762306
20
0.1478410061876656
30
0
10
-0.91160583594671263
20
0.14899758476356856
30
0
10
-0.92480349717553034
20
0.14882851987999349
30
4.3709567898628207e-17
10
-0.95328987541487076
20
0.14528924847693656
30
4.3709567898628207e-17
10
-0.9654674177511986
20
0.14291242630702783
30
4.3709567898628207e-17
10
-0.97731621036144212
20
0.14000708164029596
30
4.3709567898628207e-17
0
ARC
5
239
100
AcDbEntity
8
0
100
AcDbCircle
10
-0.972553268873254
20
0.1205824995758062
30
0
40
0.020000000000000007
210
5.2046528593787566e-16
220
-2.1226002216257246e-15
230
1
100
AcDbArc
50
103.77720496095753
51
172.93222330960037
0
ARC
5
240
100
AcDbEntity
8
0
100
AcDbCircle
10
0
20
0
30
0
40
1.0000000000000004
210
0
220
0
230
1
100
AcDbArc
50
172.93222330960037
51
175.12026426069107
0
ARC
5
241
100
AcDbEntity
8
0
100
AcDbCircle
10
-0.97644793508790251
20
0.083363241675009969
30
0
40
0.020000000000002717
210
0
220
0
230
1
100
AcDbArc
50
175.12026426069218
51
244.22630212477057
0
SPLINE
5
242
100
AcDbEntity
8
0
100
AcDbSpline
70
0
71
3
72
10
73
6
74
0
42
0.000000001
43
0.0000000001
44
0.0000000001
40
-0.1017907227595703
40
-0.1017907227595703
40
-0.1017907227595703
40
-0.1017907227595703
40
-0.057867648983131348
40
-0.057867648983131348
40
-0
40
-0
40
-0
40
-0
10
-0.98514429017556526
20
0.065352872212133872
30
0
10
-0.97416252728690966
20
0.06005029861632688
30
0
10
-0.96274780920223535
20
0.05519493677444165
30
-4.3709567898628207e-17
10
-0.93562406567014555
20
0.04581306326830329
30
-4.3709567898628207e-17
10
-0.92275403509865395
20
0.04290518676691181
30
0
10
-0.91517201563439843
20
0.042475599173926813
30
0
0
LINE
5
243
100
AcDbEntity
8
0
100
AcDbLine
10
-0.91517201563439843
20
0.04247559917392682
30
0
11
-0.88626033019362926
21
0.041121107948499949
31
0
0
ARC
5
244
100
AcDbEntity
8
0
100
AcDbCircle
10
-0.88717463025220744
20
0.021605325789220736
30
0
40
0.019537187563350888
210
0
220
0
230
1
100
AcDbArc
50
-1.4085809887584197
51
87.317696091460775
0
ARC
5
245
100
AcDbEntity
8
0
100
AcDbCircle
10
-0.0085280328592352087
20
-5.4313772276025276e-09
30
0
40
0.85937500000000266
210
0
220
0
230
1
100
AcDbArc
50
178.59141901124161
51
181.40858098875839
0
ARC
5
246
100
AcDbEntity
8
0
100
AcDbCircle
10
-0.88717463025220744
20
-0.021605336651975188
30
0
40
0.019537187563350992
210
0
220
0
230
1
100
AcDbArc
50
-87.31769609146076
51
1.4085809887586538
0
LINE
5
247
100
AcDbEntity
8
0
100
AcDbLine
10
-0.88626033019362926
20
-0.041121118811254402
30
0
11
-0.91517201563439821
21
-0.042475610036681287
31
0
0
SPLINE
5
248
100
AcDbEntity
8
0
100
AcDbSpline
70
0
71
3
72
10
73
6
74
0
42
0.000000001
43
0.0000000001
44
0.0000000001
40
-0.21535247673182267
40
-0.21535247673182267
40
-0.21535247673182267
40
-0.21535247673182267
40
-0.092925391206342578
40
-0.092925391206342578
40
-0
40
-0
40
-0
40
-0
10
-0.91517201563439843
20
-0.042475610036681273
30
0
10
-0.92275403496047848
20
-0.042905197621837414
30
0
10
-0.93562406531051912
20
-0.045813074044964743
30
0
10
-0.96274780860960829
20
-0.055194947403963586
30
0
10
-0.97416252655575319
20
-0.060050309171016177
30
0
10
-0.98514428922507469
20
-0.065352882615941299
30
0
0
ARC
5
249
100
AcDbEntity
8
0
100
AcDbCircle
10
-0.97644793419722709
20
-0.083363252107698488
30
0
40
0.01999999999999964
210
0
220
0
230
1
100
AcDbArc
50
115.77369768494269
51
184.87973635147588
0
ARC
5
250
100
AcDbEntity
8
0
100
AcDbCircle
10
0
20
0
30
0
40
1.000000000000002
210
0
220
0
230
1
100
AcDbArc
50
184.87973635147577
51
187.06777732638361
0
ARC
5
251
100
AcDbEntity
8
0
100
AcDbCircle
10
-0.9725532675347871
20
-0.12058251037116055
30
0
40
0.019999999999998838
210
0
220
0
230
1
100
AcDbArc
50
187.06777732638295
51
256.22279508055016
0
SPLINE
5
252
100
AcDbEntity
8
0
100
AcDbSpline
70
0
71
3
72
10
73
6
74
0
42
0.000000001
43
0.0000000001
44
0.0000000001
40
-0.10182335060351927
40
-0.10182335060351927
40
-0.10182335060351927
40
-0.10182335060351927
40
-0.057887076401771521
40
-0.057887076401771521
40
-0
40
-0
40
-0
40
-0
10
-0.97731620900890315
20
-0.14000709243910062
30
0
10
-0.96546741645247547
20
-0.14291243708353649
30
0
10
-0.9532898741489364
20
-0.14528925924383404
30
0
10
-0.92480349596582045
20
-0.14882853062609633
30
0
10
-0.91160583478770185
20
-0.14899759550303801
30
0
10
-0.90409766454837814
20
-0.14784101693171925
30
0
0
LINE
5
253
100
AcDbEntity
8
0
100
AcDbLine
10
-0.90409766454837814
20
-0.14784101693171925
30
0
11
-0.87553615424044284
21
-0.14315483186970421
31
0
0
ARC
5
254
100
AcDbEntity
8
0
100
AcDbCircle
10
-0.87237291538272532
20
-0.16243424103634052
30
0
40
0.019537187563351013
210
0
220
-0
230
1
100
AcDbArc
50
10.591419011241246
51
99.317696091460036
0
ARC
5
255
100
AcDbEntity
8
0
100
AcDbCircle
10
-0.0084348533051142108
20
-0.00088654423758913897
30
0
40
0.85937500000000244
210
0
220
0
230
1
100
AcDbArc
50
190.59141901124124
51
193.40858098875796
0
ARC
5
256
100
AcDbEntity
8
0
100
AcDbCircle
10
-0.86338891349322089
20
-0.20470064682931471
30
0
40
0.019537187563350992
210
0
220
0
230
1
100
AcDbArc
50
-75.317696091461301
51
13.408580988758507
0
LINE
5
257
100
AcDbEntity
8
0
100
AcDbLine
10
-0.85843703381820524
20
-0.22359986865376355
30
0
11
-0.88643531500438777
21
-0.23093583840051121
31
0
0
SPLINE
5
258
100
AcDbEntity
8
0
100
AcDbSpline
70
0
71
3
72
10
73
6
74
0
42
0.000000001
43
0.0000000001
44
0.0000000001
40
-0.21626331929866072
40
-0.21626331929866072
40
-0.21626331929866072
40
-0.21626331929866072
40
-0.093299012936180745
40
-0.093299012936180745
40
-0
40
-0
40
-0
40
-0
10
-0.88643531500438777
20
-0.23093583840051124
30
0
10
-0.89378674464893348
20
-0.23293908109782482
30
0
10
-0.90580752877858128
20
-0.2384816691415548
30
-4.3709567898628207e-17
10
-0.93042299289929253
20
-0.25333237612320397
30
-4.3709567898628207e-17
10
-0.94060022436771251
20
-0.26047299224834114
30
0
10
-0.95027373700179718
20
-0.26797884536908939
30
0
0
ARC
5
259
100
AcDbEntity
8
0
100
AcDbCircle
10
-0.93801324270903963
20
-0.28378011999164005
30
0
40
0.020000000000000094
210
0
220
0
230
1
100
AcDbArc
50
127.80853233498625
51
196.83230714969122
0
ARC
5
260
100
AcDbEntity
8
0
100
AcDbCircle
10
0
20
0
30
0
40
0.99999999999999856
210
0
220
0
230
1
100
AcDbArc
50
196.83230714969113
51
199.01252830171197
0
ARC
5
261
100
AcDbEntity
8
0
100
AcDbCircle
10
-0.92653841694173111
20
-0.31925939599504505
30
0
40
0.019999999999994789
210
0
220
0
230
1
100
AcDbArc
50
199.01252830171194
51
268.1809785480603
0
SPLINE
5
262
100
AcDbEntity
8
0
100
AcDbSpline
70
0
71
3
72
10
73
6
74
0
42
0.000000001
43
0.0000000001
44
0.0000000001
40
-0.10221053901921139
40
-0.10221053901921139
40
-0.10221053901921139
40
-0.10221053901921139
40
-0.058118417839265107
40
-0.058118417839265107
40
-0
40
-0
40
-0
40
-0
10
-0.92717326855153914
20
-0.33924931754150162
30
0
10
-0.91492039005381731
20
-0.33963845161676398
30
0
10
-0.90248154380713319
20
-0.33943386416803362
30
-4.3709567898628207e-17
10
-0.87382400518586978
20
-0.33698195800137676
30
-4.3709567898628207e-17
10
-0.86082828680193879
20
-0.3343993719624459
30
0
10
-0.85369626515866326
20
-0.33169627129623569
30
0
0
LINE
5
263
100
AcDbEntity
8
0
100
AcDbLine
10
-0.85369626515866304
20
-0.33169627129623569
30
0
11
-0.82673320503735115
21
-0.32117421872079938
31
0
0
ARC
5
264
100
AcDbEntity
8
0
100
AcDbCircle
10
-0.8196306759803238
20
-0.3393746522013415
30
0
40
0.019537187563350905
210
0
220
-0
230
1
100
AcDbArc
50
22.591419011241406
51
111.31769609146077
0
ARC
5
265
100
AcDbEntity
8
0
100
AcDbCircle
10
-0.0081593881656382324
20
-0.0017343369251958186
30
0
40
0.85937500000000244
210
0
220
0
230
1
100
AcDbArc
50
202.59141901124127
51
205.40858098875802
0
ARC
5
266
100
AcDbEntity
8
0
100
AcDbCircle
10
-0.80205531619391035
20
-0.37884955659622394
30
0
40
0.019537187563350999
210
0
220
0
230
1
100
AcDbArc
50
-63.317696091461684
51
25.408580988759049
0
LINE
5
267
100
AcDbEntity
8
0
100
AcDbLine
10
-0.79328227780601035
20
-0.39630623140358601
30
0
11
-0.81914349549911081
21
-0.40930306259183313
31
0
0
SPLINE
5
268
100
AcDbEntity
8
0
100
AcDbSpline
70
0
71
3
72
10
73
6
74
0
42
0.000000001
43
0.0000000001
44
0.0000000001
40
-0.21827723119382805
40
-0.21827723119382805
40
-0.21827723119382805
40
-0.21827723119382805
40
-0.094121354538099902
40
-0.094121354538099902
40
-0
40
-0
40
-0
40
-0
10
-0.81914349549911103
20
-0.40930306259183313
30
0
10
-0.82596473281725824
20
-0.4128151520491774
30
0
10
-0.83663516086195033
20
-0.42079757189720601
30
0
10
-0.85767730823755495
20
-0.44052299160141062
30
0
10
-0.86618125547723024
20
-0.44966617683826027
30
0
10
-0.87414043766557292
20
-0.45911183468953992
30
0
0
ARC
5
269
100
AcDbEntity
8
0
100
AcDbCircle
10
-0.85884615866150638
20
-0.47199923278790623
30
0
40
0.020000000000000188
210
0
220
0
230
1
100
AcDbArc
50
139.88155046958275
51
208.79203636862565
0
ARC
5
270
100
AcDbEntity
8
0
100
AcDbCircle
10
0
20
0
30
0
40
0.99999999999999889
210
0
220
0
230
1
100
AcDbArc
50
208.79203636862542
51
210.95690723622667
0
ARC
5
271
100
AcDbEntity
8
0
100
AcDbCircle
10
-0.84040333535346079
20
-0.50410537978360859
30
0
40
0.020000000000001267
210
0
220
0
230
1
100
AcDbArc
50
210.9569072362271
51
280.10126282720421
0
SPLINE
5
272
100
AcDbEntity
8
0
100
AcDbSpline
70
0
71
3
72
10
73
6
74
0
42
0.000000001
43
0.0000000001
44
0.0000000001
40
-0.10293893148847709
40
-0.10293893148847709
40
-0.10293893148847709
40
-0.10293893148847709
40
-0.058557128704727943
40
-0.058557128704727943
40
-0
40
-0
40
-0
40
-0
10
-0.83689556685377176
20
-0.52379536607493449
30
0
10
-0.82470924525136557
20
-0.52162437446460663
30
0
10
-0.81252714892307221
20
-0.51882951733820826
30
-4.3709567898628207e-17
10
-0.78490146643604153
20
-0.51046834554046883
30
-4.3709567898628207e-17
10
-0.77263318185444585
20
-0.50521282108033982
30
0
10
-0.76617060047133156
20
-0.50105480706849437
30
0
0
LINE
5
273
100
AcDbEntity
8
0
100
AcDbLine
10
-0.76617060047133156
20
-0.50105480706849437
30
0
11
-0.74198440564706092
21
-0.48515675116759349
31
0
0
ARC
5
274
100
AcDbEntity
8
0
100
AcDbCircle
10
-0.73125300099223178
20
-0.50148276268357228
30
0
40
0.019537187563351037
210
0
220
-0
230
1
100
AcDbArc
50
34.591419011241491
51
123.31769609146066
0
ARC
5
275
100
AcDbEntity
8
0
100
AcDbCircle
10
-0.0077136765892307597
20
-0.0025063308855881568
30
0
40
0.85937500000000244
210
0
220
0
230
1
100
AcDbArc
50
214.5914190112413
51
217.40858098875802
0
ARC
5
276
100
AcDbEntity
8
0
100
AcDbCircle
10
-0.70585441086750866
20
-0.53644092293669898
30
0
40
0.019537187563351013
210
0
220
0
230
1
100
AcDbArc
50
-51.317696091461208
51
37.40858098875875
0
LINE
5
277
100
AcDbEntity
8
0
100
AcDbLine
10
-0.69364363764198411
20
-0.55169211027147302
30
0
11
-0.71623753253292366
21
-0.56978177901257809
31
0
0
SPLINE
5
278
100
AcDbEntity
8
0
100
AcDbSpline
70
0
71
3
72
10
73
6
74
0
42
0.000000001
43
0.0000000001
44
0.0000000001
40
-0.21849712353064837
40
-0.21849712353064837
40
-0.21849712353064837
40
-0.21849712353064837
40
-0.094192669083579733
40
-0.094192669083579733
40
-0
40
-0
40
-0
40
-0
10
-0.71623753253292366
20
-0.56978177901257809
30
0
10
-0.72223013268175451
20
-0.57467668987989884
30
0
10
-0.73107465531284477
20
-0.58479684362554707
30
0
10
-0.74764055635655791
20
-0.60864684993965068
30
0
10
-0.75414622859734881
20
-0.61953794986988719
30
0
10
-0.75995125233121541
20
-0.63045133704323086
30
0
0
ARC
5
279
100
AcDbEntity
8
0
100
AcDbCircle
10
-0.74229382504520081
20
-0.63984363503888109
30
0
40
0.019999999999999692
210
0
220
0
230
1
100
AcDbArc
50
151.99069824808089
51
220.76073418284122
0
ARC
5
280
100
AcDbEntity
8
0
100
AcDbCircle
10
0
20
0
30
0
40
1.000000000000002
210
0
220
0
230
1
100
AcDbArc
50
220.76073418284102
51
222.9032973979123
0
ARC
5
281
100
AcDbEntity
8
0
100
AcDbCircle
10
-0.71785364734610679
20
-0.66714776548520027
30
0
40
0.019999999999997669
210
0
220
0
230
1
100
AcDbArc
50
222.90329739791358
51
291.98635529495726
0
SPLINE
5
282
100
AcDbEntity
8
0
100
AcDbSpline
70
0
71
3
72
10
73
6
74
0
42
0.000000001
43
0.0000000001
44
0.0000000001
40
-0.10378718164115321
40
-0.10378718164115321
40
-0.10378718164115321
40
-0.10378718164115321
40
-0.059044597703786117
40
-0.059044597703786117
40
-0
40
-0
40
-0
40
-0
10
-0.71036593177470642
20
-0.68569322626464146
30
0
10
-0.69891725818452932
20
-0.68107083307998162
30
0
10
-0.68735614717724403
20
-0.67572161530318053
30
-8.7419135797256413e-17
10
-0.66185482700673737
20
-0.66171936494453065
30
-8.7419135797256413e-17
10
-0.65084824734819258
20
-0.6539706843405515
30
0
10
-0.64534596202795602
20
-0.64851484356282785
30
0
0
LINE
5
283
100
AcDbEntity
8
0
100
AcDbLine
10
-0.64534596202795602
20
-0.64851484356282785
30
0
11
-0.62499368527278687
21
-0.62793560566666795
31
0
0
ARC
5
284
100
AcDbEntity
8
0
100
AcDbCircle
10
-0.61110241889856476
20
-0.64167367017393995
30
0
40
0.019537187563350985
210
0
220
-0
230
1
100
AcDbArc
50
46.591419011241456
51
135.31769609146079
0
ARC
5
285
100
AcDbEntity
8
0
100
AcDbCircle
10
-0.0071171983105422412
20
-0.003168786278258983
30
0
40
0.85937500000000244
210
0
220
0
230
1
100
AcDbArc
50
226.59141901124133
51
229.4085809887581
0
ARC
5
286
100
AcDbEntity
8
0
100
AcDbCircle
10
-0.57899063869993994
20
-0.67058724693438532
30
0
40
0.019537187563351016
210
0
220
0
230
1
100
AcDbArc
50
-39.317696091461293
51
49.408580988758722
0
LINE
5
287
100
AcDbEntity
8
0
100
AcDbLine
10
-0.56387580002053728
20
-0.68296639672672532
30
0
11
-0.58221491048504526
21
-0.70535829769284053
31
0
0
SPLINE
5
288
100
AcDbEntity
8
0
100
AcDbSpline
70
0
71
3
72
10
73
6
74
0
42
0.000000001
43
0.0000000001
44
0.0000000001
40
-0.12522808330027704
40
-0.12522808330027704
40
-0.12522808330027704
40
-0.12522808330027704
40
-0.061230395702539173
40
-0.061230395702539173
40
-0
40
-0
40
-0
40
-0
10
-0.58221491048504537
20
-0.70535829769284064
30
0
10
-0.58712176138671379
20
-0.71147054209931071
30
0
10
-0.59373293094743373
20
-0.72336596509088824
30
4.3709567898628207e-17
10
-0.60628490133795243
20
-0.75337950377338914
30
4.3709567898628207e-17
10
-0.61036682598873626
20
-0.76677830597126739
30
0
10
-0.61256420117917842
20
-0.77450750783582034
30
0
0
ARC
5
289
100
AcDbEntity
8
0
100
AcDbCircle
10
-0.59332652762435911
20
-0.77997668658570729
30
0
40
0.020000000000000212
210
0
220
0
230
1
100
AcDbArc
50
164.12980206720474
51
232.73983263340526
0
ARC
5
290
100
AcDbEntity
8
0
100
AcDbCircle
10
0
20
0
30
0
40
0.99999999999999889
210
0
220
0
230
1
100
AcDbArc
50
232.73983263340514
51
234.85397972805072
0
ARC
5
291
100
AcDbEntity
8
0
100
AcDbCircle
10
-0.56414896448362062
20
-0.8013338541906655
30
0
40
0.019999999999995743
210
0
220
0
230
1
100
AcDbArc
50
234.8539797280506
51
303.84331622792195
0
SPLINE
5
292
100
AcDbEntity
8
0
100
AcDbSpline
70
0
71
3
72
10
73
6
74
0
42
0.000000001
43
0.0000000001
44
0.0000000001
40
-0.1170237625357734
40
-0.1170237625357734
40
-0.1170237625357734
40
-0.1170237625357734
40
-0.059823847173751533
40
-0.059823847173751533
40
-0
40
-0
40
-0
40
-0
10
-0.55301049068971775
20
-0.81794512751761128
30
0
10
-0.54633090618500646
20
-0.81346621879727676
30
0
10
-0.53481219214939313
20
-0.8054231299095701
30
-1.3112870369588462e-16
10
-0.51009425675943587
20
-0.78417743872664003
30
-1.3112870369588462e-16
10
-0.50080674022365124
20
-0.77419780533577687
30
0
10
-0.49650296630945367
20
-0.76763166959267304
30
0
0
LINE
5
293
100
AcDbEntity
8
0
100
AcDbLine
10
-0.49650296630945367
20
-0.76763166959267315
30
0
11
-0.48087409977864604
21
-0.74327066114745566
31
0
0
ARC
5
294
100
AcDbEntity
8
0
100
AcDbCircle
10
-0.46443008668327618
20
-0.75382035930450553
30
0
40
0.019537187563350978
210
0
220
-0
230
1
100
AcDbArc
50
58.591419011241186
51
147.31769609146093
0
ARC
5
295
100
AcDbEntity
8
0
100
AcDbCircle
10
-0.0063960222925717007
20
-0.0036927506237349277
30
0
40
0.85937500000000244
210
0
220
0
230
1
100
AcDbArc
50
238.59141901124136
51
241.40858098875808
0
ARC
5
296
100
AcDbEntity
8
0
100
AcDbCircle
10
-0.42700855529484649
20
-0.77542569052510357
30
0
40
0.019537187563350999
210
0
220
0
230
1
100
AcDbArc
50
-27.31769609146113
51
61.408580988758139
0
LINE
5
297
100
AcDbEntity
8
0
100
AcDbLine
10
-0.40965024214089851
20
-0.784391774527333
30
0
11
-0.42293306105086043
21
-0.81010727419797735
31
0
0
SPLINE
5
298
100
AcDbEntity
8
0
100
AcDbSpline
70
0
71
3
72
10
73
6
74
0
42
0.000000001
43
0.0000000001
44
0.0000000001
40
-0.12830710818159546
40
-0.12830710818159546
40
-0.12830710818159546
40
-0.12830710818159546
40
-0.062622755139146238
40
-0.062622755139146238
40
-0
40
-0
40
-0
40
-0
10
-0.42293306105086054
20
-0.81010727419797757
30
0
10
-0.42649489886639425
20
-0.81717163406919513
30
0
10
-0.43052013972842307
20
-0.83031530312151414
30
-4.3709567898628207e-17
10
-0.43657774403941668
20
-0.86266865708873541
30
-4.3709567898628207e-17
10
-0.43776792379112939
20
-0.87672649374741218
30
0
10
-0.43829999640635364
20
-0.8849274609720702
30
0
0
ARC
5
299
100
AcDbEntity
8
0
100
AcDbCircle
10
-0.41834195715591077
20
-0.88622232362030029
30
0
40
0.019999999999999976
210
0
220
0
230
1
100
AcDbArc
50
176.28789535218513
51
244.73030920292402
0
ARC
5
300
100
AcDbEntity
8
0
100
AcDbCircle
10
0
20
0
30
0
40
1.0000000000000011
210
0
220
0
230
1
100
AcDbArc
50
244.7303092029241
51
246.81104703396446
0
ARC
5
301
100
AcDbEntity
8
0
100
AcDbCircle
10
-0.38588939270771128
20
-0.90082705143421904
30
0
40
0.020000000000002474
210
0
220
0
230
1
100
AcDbArc
50
246.81104703396497
51
315.68376444250202
0
SPLINE
5
302
100
AcDbEntity
8
0
100
AcDbSpline
70
0
71
3
72
10
73
6
74
0
42
0.000000001
43
0.0000000001
44
0.0000000001
40
-0.11782828277518947
40
-0.11782828277518947
40
-0.11782828277518947
40
-0.11782828277518947
40
-0.060383752972908607
40
-0.060383752972908607
40
-0
40
-0
40
-0
40
-0
10
-0.37157949672231
20
-0.91479941261216635
30
4.3709567898628207e-17
10
-0.36578062455112487
20
-0.90886045522724879
30
4.3709567898628207e-17
10
-0.35613302042930084
20
-0.89857499142572217
30
0
10
-0.33610593869811634
20
-0.87239160526522974
30
0
10
-0.32901793902684168
20
-0.8605852489319874
30
0
10
-0.32614676645665786
20
-0.85319930827457768
30
0
0
LINE
5
303
100
AcDbEntity
8
0
100
AcDbLine
10
-0.32614676645665786
20
-0.85319930827457768
30
0
11
-0.31592436661323059
21
-0.82612122224644724
31
0
0
ARC
5
304
100
AcDbEntity
8
0
100
AcDbCircle
10
-0.29764628907611007
20
-0.83302148162074363
30
0
40
0.019537187563350961
210
0
220
-0
230
1
100
AcDbArc
50
70.591419011241442
51
159.31769609146107
0
ARC
5
305
100
AcDbEntity
8
0
100
AcDbCircle
10
-0.0055816673878909323
20
-0.0040553241658588058
30
0
40
0.85937500000000266
210
0
220
0
230
1
100
AcDbArc
50
250.59141901124136
51
253.40858098875813
0
ARC
5
306
100
AcDbEntity
8
0
100
AcDbCircle
10
-0.25655050698798043
20
-0.84637431065327262
30
0
40
0.019537187563351009
210
0
220
0
230
1
100
AcDbArc
50
-15.317696091461571
51
73.408580988758715
0
LINE
5
307
100
AcDbEntity
8
0
100
AcDbLine
10
-0.23770736093874259
20
-0.85153546797044977
30
0
11
-0.24535336536975622
21
-0.87945067561335732
31
0
0
SPLINE
5
308
100
AcDbEntity
8
0
100
AcDbSpline
70
0
71
3
72
10
73
6
74
0
42
0.000000001
43
0.0000000001
44
0.0000000001
40
-0.17290728069316996
40
-0.17290728069316996
40
-0.17290728069316996
40
-0.17290728069316996
40
-0.079904092924935291
40
-0.079904092924935291
40
-0
40
-0
40
-0
40
-0
10
-0.24535336536975624
20
-0.87945067561335732
30
0
10
-0.24738283082588869
20
-0.88715521423664678
30
0
10
-0.24859655216214413
20
-0.90096515018534828
30
-4.3709567898628207e-17
10
-0.24776904417199674
20
-0.93284398356866427
30
-4.3709567898628207e-17
10
-0.2462295150896544
20
-0.94641058914903864
30
0
10
-0.24468842440306734
20
-0.95678282915657542
30
0
0
ARC
5
309
100
AcDbEntity
8
0
100
AcDbCircle
10
-0.22490559076733721
20
-0.95384352765094504
30
0
40
0.019999999999999376
210
0
220
0
230
1
100
AcDbArc
50
188.45108895369012
51
256.73262840182116
0
ARC
5
310
100
AcDbEntity
8
0
100
AcDbCircle
10
0
20
0
30
0
40
1.000000000000002
210
0
220
0
230
1
100
AcDbArc
50
256.73262840182127
51
258.77632766500903
0
ARC
5
311
100
AcDbEntity
8
0
100
AcDbCircle
10
-0.19074683372113427
20
-0.96125732529087105
30
0
40
0.020000000000001246
210
0
220
0
230
1
100
AcDbArc
50
258.77632766500932
51
327.52164201839616
0
SPLINE
5
312
100
AcDbEntity
8
0
100
AcDbSpline
70
0
71
3
72
10
73
6
74
0
42
0.000000001
43
0.0000000001
44
0.0000000001
40
-0.11309277862423703
40
-0.11309277862423703
40
-0.11309277862423703
40
-0.11309277862423703
40
-0.060830214252669643
40
-0.060830214252669643
40
-0
40
-0
40
-0
40
-0
10
-0.17387494698400879
20
-0.9719969452994941
30
0
10
-0.16823107041195412
20
-0.96313044478959908
30
0
10
-0.16128713544100723
20
-0.95134111288844336
30
0
10
-0.14752457516879078
20
-0.9224931641869063
30
0
10
-0.14300496380814814
20
-0.90935736367949738
30
0
10
-0.14172274586287917
20
-0.901478043199057
30
0
0
LINE
5
313
100
AcDbEntity
8
0
100
AcDbLine
10
-0.1417227458628792
20
-0.901478043199057
30
0
11
-0.13735358063250644
21
-0.87286632188251534
31
0
0
ARC
5
314
100
AcDbEntity
8
0
100
AcDbCircle
10
-0.11804027834995444
20
-0.87581556802828342
30
0
40
0.01953718756335102
210
0
220
-0
230
1
100
AcDbArc
50
82.591419011241342
51
171.3176960914613
0
ARC
5
315
100
AcDbEntity
8
0
100
AcDbCircle
10
-0.0047097248135428722
20
-0.004240660701018922
30
0
40
0.85937500000000233
210
0
220
0
230
1
100
AcDbArc
50
262.59141901124138
51
265.4085809887581
0
ARC
5
316
100
AcDbEntity
8
0
100
AcDbCircle
10
-0.075066328438817637
20
-0.88033231217003916
30
0
40
0.019537187563350999
210
0
220
0
230
1
100
AcDbArc
50
-3.3176960914613498
51
85.408580988758757
0
LINE
5
317
100
AcDbEntity
8
0
100
AcDbLine
10
-0.055561885396088244
20
-0.8814629754614226
30
0
11
-0.057236908264918486
21
-0.91035786255057094
31
0
0
SPLINE
5
318
100
AcDbEntity
8
0
100
AcDbSpline
70
0
71
3
72
10
73
6
74
0
42
0.000000001
43
0.0000000001
44
0.0000000001
40
-0.17590134322152928
40
-0.17590134322152928
40
-0.17590134322152928
40
-0.17590134322152928
40
-0.081278535555422984
40
-0.081278535555422984
40
-0
40
-0
40
-0
40
-0
10
-0.057236908264918528
20
-0.91035786255057105
30
0
10
-0.057624752618893237
20
-0.91841132369902878
30
0
10
-0.055905250333777946
20
-0.93234115087484726
30
8.7419135797256413e-17
10
-0.048312898858713545
20
-0.96374408903739295
30
8.7419135797256413e-17
10
-0.043909246419650876
20
-0.97682021953043208
30
0
10
-0.040155321617608389
20
-0.98680429317113594
30
0
0
ARC
5
319
100
AcDbEntity
8
0
100
AcDbCircle
10
-0.021434846249228982
20
-0.97976555734842674
30
0
40
0.019999999999999751
210
0
220
0
230
1
100
AcDbArc
50
200.60582375464512
51
268.74671003296351
0
ARC
5
320
100
AcDbEntity
8
0
100
AcDbCircle
10
0
20
0
30
0
40
1.0000000000000009
210
0
220
0
230
1
100
AcDbArc
50
268.74671003296345
51
270.75131609998266
0
ARC
5
321
100
AcDbEntity
8
0
100
AcDbCircle
10
0.012850312600393224
20
-0.97991574610579213
30
0
40
0.020000000000000524
210
0
220
0
230
1
100
AcDbArc
50
270.75131609998272
51
339.36999899473398
0
SPLINE
5
322
100
AcDbEntity
8
0
100
AcDbSpline
70
0
71
3
72
10
73
6
74
0
42
0.000000001
43
0.0000000001
44
0.0000000001
40
-0.1144454273716316
40
-0.1144454273716316
40
-0.1144454273716316
40
-0.1144454273716316
40
-0.061565984006142563
40
-0.061565984006142563
40
-0
40
-0
40
-0
40
-0
10
0.03156781614832007
20
-0.98696238082978249
30
0
10
0.035339494700737863
20
-0.97694392387100393
30
0
10
0.039754029509088878
20
-0.96385220722309906
30
0
10
0.047371675105555622
20
-0.93238720444782619
30
0
10
0.049097529956487952
20
-0.91842803444069943
30
0
10
0.048708880807298328
20
-0.91035786198283819
30
0
0
LINE
5
323
100
AcDbEntity
8
0
100
AcDbLine
10
0.048708880807298328
20
-0.91035786198283819
30
0
11
0.047033857938468239
21
-0.88146297489368952
31
0
0
ARC
5
324
100
AcDbEntity
8
0
100
AcDbCircle
10
0.066538300981197632
20
-0.88033231160230629
30
0
40
0.019537187563350929
210
0
220
0
230
1
100
AcDbArc
50
94.591419011241484
51
183.31769609146059
0
ARC
5
325
100
AcDbEntity
8
0
100
AcDbCircle
10
-0.0038183026440712139
20
-0.0042406601332854099
30
0
40
0.85937500000000244
210
0
220
0
230
1
100
AcDbArc
50
274.59141901124144
51
277.40858098875816
0
ARC
5
326
100
AcDbEntity
8
0
100
AcDbCircle
10
0.10951225089233443
20
-0.87581556746055078
30
0
40
0.019537187563351002
210
0
220
-0
230
1
100
AcDbArc
50
8.6823039085390921
51
97.408580988758743
0
LINE
5
327
100
AcDbEntity
8
0
100
AcDbLine
10
0.12882555317488645
20
-0.87286632131478259
30
0
11
0.13319471840525904
21
-0.90147804263132447
31
0
0
SPLINE
5
328
100
AcDbEntity
8
0
100
AcDbSpline
70
0
71
3
72
10
73
6
74
0
42
0.000000001
43
0.0000000001
44
0.0000000001
40
-0.22824198674647631
40
-0.22824198674647631
40
-0.22824198674647631
40
-0.22824198674647631
40
-0.09843664109236111
40
-0.09843664109236111
40
-0
40
-0
40
-0
40
-0
10
0.13319471840525904
20
-0.90147804263132469
30
0
10
0.1345063177735529
20
-0.90953791404621365
30
0
10
0.13916061086572681
20
-0.92297296456431255
30
0
10
0.1525702273862436
20
-0.95083880720663061
30
0
10
0.15935286446221708
20
-0.96268259325537187
30
0
10
0.16633965948252258
20
-0.97354833948383979
30
0
0
ARC
5
329
100
AcDbEntity
8
0
100
AcDbCircle
10
0.18316205109248754
20
-0.96273135559178524
30
0
40
0.019999999999999751
210
0
220
0
230
1
100
AcDbArc
50
212.74146592962757
51
280.77192977930542
0
ARC
5
330
100
AcDbEntity
8
0
100
AcDbCircle
10
0
20
0
30
0
40
1.0000000000000018
210
0
220
0
230
1
100
AcDbArc
50
280.77192977930537
51
282.73711005023864
0
ARC
5
331
100
AcDbEntity
8
0
100
AcDbCircle
10
0.21606844457035349
20
-0.95588410765162757
30
0
40
0.019999999999999889
210
0
220
0
230
1
100
AcDbArc
50
282.7371100502387
51
351.23864108116004
0
SPLINE
5
332
100
AcDbEntity
8
0
100
AcDbSpline
70
0
71
3
72
10
73
6
74
0
42
0.000000001
43
0.0000000001
44
0.0000000001
40
-0.10964945223209112
40
-0.10964945223209112
40
-0.10964945223209112
40
-0.10964945223209112
40
-0.062356128368856317
40
-0.062356128368856317
40
-0
40
-0
40
-0
40
-0
10
0.2358350712175814
20
-0.95893049419786525
30
0
10
0.23781146340017323
20
-0.94610657772614226
30
0
10
0.23919469960941109
20
-0.93252908439848758
30
4.3709567898628207e-17
10
0.24012193514737151
20
-0.90156114866730619
30
4.3709567898628207e-17
10
0.23890979020594827
20
-0.88736396212443669
30
0
10
0.23682533767605937
20
-0.87945067393497112
30
0
0
LINE
5
333
100
AcDbEntity
8
0
100
AcDbLine
10
0.23682533767605932
20
-0.87945067393497112
30
0
11
0.22917933324504597
21
-0.85153546629206356
31
0
0
ARC
5
334
100
AcDbEntity
8
0
100
AcDbCircle
10
0.24802247929428378
20
-0.84637430897488641
30
0
40
0.019537187563350964
210
0
220
0
230
1
100
AcDbArc
50
106.59141901124147
51
195.31769609146161
0
ARC
5
335
100
AcDbEntity
8
0
100
AcDbCircle
10
-0.0029463603058000223
20
-0.0040553224874709491
30
0
40
0.85937500000000244
210
0
220
0
230
1
100
AcDbArc
50
286.5914190112415
51
289.40858098875822
0
ARC
5
336
100
AcDbEntity
8
0
100
AcDbCircle
10
0.28911826138241337
20
-0.83302147994235765
30
0
40
0.019537187563351002
210
0
220
-0
230
1
100
AcDbArc
50
20.682303908539531
51
109.40858098875862
0
LINE
5
337
100
AcDbEntity
8
0
100
AcDbLine
10
0.30739633891953388
20
-0.82612122056806103
30
0
11
0.31761873876296115
21
-0.85319930659619192
31
0
0
SPLINE
5
338
100
AcDbEntity
8
0
100
AcDbSpline
70
0
71
3
72
10
73
6
74
0
42
0.000000001
43
0.0000000001
44
0.0000000001
40
-0.11346934072551337
40
-0.11346934072551337
40
-0.11346934072551337
40
-0.11346934072551337
40
-0.056961870641832266
40
-0.056961870641832266
40
-0
40
-0
40
-0
40
-0
10
0.31761873876296126
20
-0.85319930659619225
30
0
10
0.32063161082383285
20
-0.86094976175205939
30
0
10
0.32813458016256764
20
-0.87331594447314875
30
0
10
0.3498860476898546
20
-0.90134371586867745
30
0
10
0.36042770239765015
20
-0.91218551116355862
30
0
10
0.36570013615592678
20
-0.91748472982518792
30
0
0
ARC
5
339
100
AcDbEntity
8
0
100
AcDbCircle
10
0.37987805753742981
20
-0.90337847074278033
30
0
40
0.020000000000002231
210
0
220
0
230
1
100
AcDbArc
50
224.8548326861461
51
292.80715293742088
0
ARC
5
340
100
AcDbEntity
8
0
100
AcDbCircle
10
0
20
0
30
0
40
0.99999999999998734
210
0
220
0
230
1
100
AcDbArc
50
292.80715293742077
51
294.7343559182579
0
ARC
5
341
100
AcDbEntity
8
0
100
AcDbCircle
10
0.41004352661806742
20
-0.89009230211174739
30
0
40
0.020000000000014423
210
0
220
0
230
1
100
AcDbArc
50
-65.265644081742323
51
3.1286404499242013
0
SPLINE
5
342
100
AcDbEntity
8
0
100
AcDbSpline
70
0
71
3
72
10
73
6
74
0
42
0.000000001
43
0.0000000001
44
0.0000000001
40
-0.1245329323241057
40
-0.1245329323241057
40
-0.1245329323241057
40
-0.1245329323241057
40
-0.062790757908072051
40
-0.062790757908072051
40
-0
40
-0
40
-0
40
-0
10
0.43001371688349249
20
-0.88900074324351164
30
0
10
0.42956437095648836
20
-0.88077991000428324
30
0
10
0.42857314649359357
20
-0.86617909554698025
30
0
10
0.42228504652006854
20
-0.83121411570000536
30
0
10
0.41811487934299363
20
-0.8174651838102972
30
0
10
0.41440503289532776
20
-0.81010727148229156
30
0
0
LINE
5
343
100
AcDbEntity
8
0
100
AcDbLine
10
0.41440503289532776
20
-0.81010727148229156
30
0
11
0.40112221398536602
21
-0.78439177181164721
31
0
0
ARC
5
344
100
AcDbEntity
8
0
100
AcDbCircle
10
0.41848052713931405
20
-0.7754256878094179
30
0
40
0.019537187563350988
210
0
220
0
230
1
100
AcDbArc
50
118.59141901124154
51
207.31769609146073
0
ARC
5
345
100
AcDbEntity
8
0
100
AcDbCircle
10
-0.0021320058629553007
20
-0.0036927479080463284
30
0
40
0.85937500000000233
210
0
220
0
230
1
100
AcDbArc
50
298.5914190112415
51
301.40858098875827
0
ARC
5
346
100
AcDbEntity
8
0
100
AcDbCircle
10
0.45590205852774401
20
-0.75382035658882018
30
0
40
0.019537187563350988
210
0
220
-0
230
1
100
AcDbArc
50
32.682303908538728
51
121.40858098875918
0
LINE
5
347
100
AcDbEntity
8
0
100
AcDbLine
10
0.47234607162311393
20
-0.74327065843177043
30
0
11
0.48797493815392101
21
-0.76763166687698758
31
0
0
SPLINE
5
348
100
AcDbEntity
8
0
100
AcDbSpline
70
0
71
3
72
10
73
6
74
0
42
0.000000001
43
0.0000000001
44
0.0000000001
40
-0.13045134284018647
40
-0.13045134284018647
40
-0.13045134284018647
40
-0.13045134284018647
40
-0.064458314657142621
40
-0.064458314657142621
40
-0
40
-0
40
-0
40
-0
10
0.48797493815392112
20
-0.76763166687698781
30
0
10
0.49253345066334209
20
-0.77458644947482636
30
0
10
0.50245635983243875
20
-0.78516170636159355
30
-8.7419135797256413e-17
10
0.5297718663200065
20
-0.80817763270534737
30
-8.7419135797256413e-17
10
0.54201530325964931
20
-0.81638134758901904
30
0
10
0.5491058732509988
20
-0.820994386641551
30
0
0
ARC
5
349
100
AcDbEntity
8
0
100
AcDbCircle
10
0.5600125678193848
20
-0.80423001926332471
30
0
40
0.02000000000000491
210
0
220
0
230
1
100
AcDbArc
50
236.9524592324164
51
304.85079994364867
0
ARC
5
350
100
AcDbEntity
8
0
100
AcDbCircle
10
0
20
0
30
0
40
0.99999999999997391
210
0
220
0
230
1
100
AcDbArc
50
304.85079994364895
51
306.74320629956242
0
ARC
5
351
100
AcDbEntity
8
0
100
AcDbCircle
10
0.58626499794946807
20
-0.78529825682936616
30
0
40
0.020000000000035337
210
0
220
0
230
1
100
AcDbArc
50
-53.256793700437896
51
15.033319531220299
0
SPLINE
5
352
100
AcDbEntity
8
0
100
AcDbSpline
70
0
71
3
72
10
73
6
74
0
42
0.000000001
43
0.0000000001
44
0.0000000001
40
-0.1255712841212577
40
-0.1255712841212577
40
-0.1255712841212577
40
-0.1255712841212577
40
-0.063471902893697127
40
-0.063471902893697127
40
-0
40
-0
40
-0
40
-0
10
0.60558050096694482
20
-0.78011064242753403
30
0
10
0.6033932511976452
20
-0.77196666216753973
30
0
10
0.59937331166120777
20
-0.75775085194725833
30
-4.3709567898628207e-17
10
0.5859024514893425
20
-0.72458187081207059
30
-4.3709567898628207e-17
10
0.57890141450894173
20
-0.71185380408405785
30
0
10
0.57368688166210302
20
-0.70535829405854367
30
0
0
LINE
5
353
100
AcDbEntity
8
0
100
AcDbLine
10
0.57368688166210302
20
-0.70535829405854367
30
0
11
0.55534777119759493
21
-0.68296639309242835
31
0
0
ARC
5
354
100
AcDbEntity
8
0
100
AcDbCircle
10
0.57046260987699771
20
-0.67058724330008845
30
0
40
0.01953718756335102
210
0
220
0
230
1
100
AcDbArc
50
130.59141901124116
51
219.31769609146085
0
ARC
5
355
100
AcDbEntity
8
0
100
AcDbCircle
10
-0.001410830512395531
20
-0.0031687826439582649
30
0
40
0.85937500000000244
210
0
220
0
230
1
100
AcDbArc
50
310.59141901124156
51
313.40858098875822
0
ARC
5
356
100
AcDbEntity
8
0
100
AcDbCircle
10
0.60257439007562275
20
-0.64167366653964331
30
0
40
0.019537187563351013
210
0
220
-0
230
1
100
AcDbArc
50
44.682303908538969
51
133.4085809887583
0
LINE
5
357
100
AcDbEntity
8
0
100
AcDbLine
10
0.61646565644984486
20
-0.62793560203237142
30
0
11
0.63681793320501379
21
-0.64851483992853143
31
0
0
SPLINE
5
358
100
AcDbEntity
8
0
100
AcDbSpline
70
0
71
3
72
10
73
6
74
0
42
0.000000001
43
0.0000000001
44
0.0000000001
40
-0.11490699468409236
40
-0.11490699468409236
40
-0.11490699468409236
40
-0.11490699468409236
40
-0.060541274240542738
40
-0.060541274240542738
40
-0
40
-0
40
-0
40
-0
10
0.6368179332050139
20
-0.64851483992853154
30
0
10
0.6434704208376596
20
-0.65511117421276177
30
0
10
0.65669949742406331
20
-0.66376682851397517
30
-8.7419135797256413e-17
10
0.68671938419503076
20
-0.6797889018796216
30
-8.7419135797256413e-17
10
0.70099565661397134
20
-0.68543082615771789
30
0
10
0.70841489225024912
20
-0.68827314000039763
30
0
0
ARC
5
359
100
AcDbEntity
8
0
100
AcDbCircle
10
0.71556982304988115
20
-0.66959676547929203
30
0
40
0.020000000000003244
210
0
220
0
230
1
100
AcDbArc
50
249.03813233393535
51
316.90092343415722
0
ARC
5
360
100
AcDbEntity
8
0
100
AcDbCircle
10
0
20
0
30
0
40
0.99999999999998368
210
0
220
0
230
1
100
AcDbArc
50
316.90092343415739
51
318.76330906194931
0
ARC
5
361
100
AcDbEntity
8
0
100
AcDbCircle
10
0.73695308573082308
20
-0.64598773164187395
30
0
40
0.020000000000002075
210
0
220
0
230
1
100
AcDbArc
50
-41.236690938050224
51
26.949708458243418
0
SPLINE
5
362
100
AcDbEntity
8
0
100
AcDbSpline
70
0
71
3
72
10
73
6
74
0
42
0.000000001
43
0.0000000001
44
0.0000000001
40
-0.15114361924157657
40
-0.15114361924157657
40
-0.15114361924157657
40
-0.15114361924157657
40
-0.071506060421012402
40
-0.071506060421012402
40
-0
40
-0
40
-0
40
-0
10
0.7547811791888962
20
-0.6369235668347758
30
0
10
0.75117375769746264
20
-0.62982821401441669
30
0
10
0.74406362244688518
20
-0.61619940052143363
30
0
10
0.72498195614261873
20
-0.58799260086937244
30
0
10
0.71497714345459218
20
-0.57571817151010451
30
0
10
0.70770950286616607
20
-0.56978177461850643
30
0
0
LINE
5
363
100
AcDbEntity
8
0
100
AcDbLine
10
0.70770950286616607
20
-0.56978177461850643
30
0
11
0.68511560797522641
21
-0.55169210587740103
31
0
0
ARC
5
364
100
AcDbEntity
8
0
100
AcDbCircle
10
0.69732638120075097
20
-0.53644091854262721
30
0
40
0.01953718756335104
210
0
220
0
230
1
100
AcDbArc
50
142.59141901124173
51
231.31769609146079
0
ARC
5
365
100
AcDbEntity
8
0
100
AcDbCircle
10
-0.00081435307752345475
20
-0.0025063264915116995
30
0
40
0.85937500000000244
210
0
220
0
230
1
100
AcDbArc
50
322.5914190112415
51
325.40858098875827
0
ARC
5
366
100
AcDbEntity
8
0
100
AcDbCircle
10
0.72272497132547442
20
-0.5014827582895004
30
0
40
0.019537187563351054
210
0
220
-0
230
1
100
AcDbArc
50
56.682303908538813
51
145.40858098875893
0
LINE
5
367
100
AcDbEntity
8
0
100
AcDbLine
10
0.73345637598030367
20
-0.48515674677352177
30
0
11
0.75764257080457387
21
-0.50105480267442282
31
0
0
SPLINE
5
368
100
AcDbEntity
8
0
100
AcDbSpline
70
0
71
3
72
10
73
6
74
0
42
0.000000001
43
0.0000000001
44
0.0000000001
40
-0.12224694620283505
40
-0.12224694620283505
40
-0.12224694620283505
40
-0.12224694620283505
40
-0.057177897179617222
40
-0.057177897179617222
40
-0
40
-0
40
-0
40
-0
10
0.75764257080457398
20
-0.50105480267442293
30
0
10
0.76291626980358951
20
-0.50444789175635474
30
0
10
0.77605538364378135
20
-0.51065992038874153
30
-4.3709567898628207e-17
10
0.81357763775324199
20
-0.52142010532472194
30
-4.3709567898628207e-17
10
0.82912580541160286
20
-0.52399287897618596
30
0
10
0.83653933772948441
20
-0.52515239080575038
30
0
0
ARC
5
369
100
AcDbEntity
8
0
100
AcDbCircle
10
0.83962986063448553
20
-0.50539261681479331
30
0
40
0.020000000000000951
210
0
220
0
230
1
100
AcDbArc
50
261.11068472600903
51
328.95529302878782
0
ARC
5
370
100
AcDbEntity
8
0
100
AcDbCircle
10
0
20
0
30
0
40
0.999999999999995
210
0
220
0
230
1
100
AcDbArc
50
328.95529302878765
51
330.79382405735475
0
ARC
5
371
100
AcDbEntity
8
0
100
AcDbCircle
10
0.85541209583487776
20
-0.47819467406004162
30
0
40
0.01999999999999625
210
0
220
0
230
1
100
AcDbArc
50
-29.206175942644887
51
38.87968692578692
0
SPLINE
5
372
100
AcDbEntity
8
0
100
AcDbSpline
70
0
71
3
72
10
73
6
74
0
42
0.000000001
43
0.0000000001
44
0.0000000001
40
-0.089816987389582076
40
-0.089816987389582076
40
-0.089816987389582076
40
-0.089816987389582076
40
-0.047846771912005814
40
-0.047846771912005814
40
-0
40
-0
40
-0
40
-0
10
0.87098141047036481
20
-0.46564093191750983
30
0
10
0.86623469596961666
20
-0.4597539947305686
30
0
10
0.85623290476945313
20
-0.44757794376916571
30
0
10
0.8281600667022111
20
-0.42046142462038216
30
0
10
0.81619805515948896
20
-0.41217739782076535
30
0
10
0.81061546484901081
20
-0.40930305763002867
30
0
0
LINE
5
373
100
AcDbEntity
8
0
100
AcDbLine
10
0.81061546484901081
20
-0.40930305763002861
30
0
11
0.78475424715591025
21
-0.39630622644178121
31
0
0
ARC
5
374
100
AcDbEntity
8
0
100
AcDbCircle
10
0.79352728554381036
20
-0.3788495516344193
30
0
40
0.019537187563350929
210
0
220
0
230
1
100
AcDbArc
50
154.59141901124141
51
243.31769609146113
0
ARC
5
375
100
AcDbEntity
8
0
100
AcDbCircle
10
-0.00036864248445927166
20
-0.0017343319633858505
30
0
40
0.85937500000000244
210
0
220
0
230
1
100
AcDbArc
50
334.59141901124161
51
337.40858098875833
0
ARC
5
376
100
AcDbEntity
8
0
100
AcDbCircle
10
0.81110264533022391
20
-0.33937464723953692
30
0
40
0.019537187563351089
210
0
220
-0
230
1
100
AcDbArc
50
68.682303908538628
51
157.40858098875941
0
LINE
5
377
100
AcDbEntity
8
0
100
AcDbLine
10
0.81820517438725149
20
-0.3211742137589948
30
0
11
0.8451682345085636
21
-0.33169626633443133
31
0
0
SPLINE
5
378
100
AcDbEntity
8
0
100
AcDbSpline
70
0
71
3
72
10
73
6
74
0
42
0.000000001
43
0.0000000001
44
0.0000000001
40
-0.1291535847954971
40
-0.1291535847954971
40
-0.1291535847954971
40
-0.1291535847954971
40
-0.060034982027079305
40
-0.060034982027079305
40
-0
40
-0
40
-0
40
-0
10
0.84516823450856371
20
-0.33169626633443144
30
0
10
0.85107409635048248
20
-0.33393464135317902
30
0
10
0.86531059458296444
20
-0.3372897044102775
30
-8.7419135797256413e-17
10
0.90419753083826915
20
-0.33997778028191172
30
-8.7419135797256413e-17
10
0.91990988899032811
20
-0.33927539670067758
30
0
10
0.92777647698766108
20
-0.33884038556293744
30
0
0
ARC
5
379
100
AcDbEntity
8
0
100
AcDbCircle
10
0.9266721925043423
20
-0.31887089493899035
30
0
40
0.020000000000000202
210
0
220
0
230
1
100
AcDbArc
50
273.16515162422019
51
341.01149430036998
0
ARC
5
380
100
AcDbEntity
8
0
100
AcDbCircle
10
0
20
0
30
0
40
0.99999999999999867
210
0
220
0
230
1
100
AcDbArc
50
341.01149430036975
51
342.83345803514055
0
ARC
5
381
100
AcDbEntity
8
0
100
AcDbCircle
10
0.93634186122688023
20
-0.28924715886968849
30
0
40
0.0199999999999976
210
0
220
0
230
1
100
AcDbArc
50
-17.166541964859466
51
50.828578678080227
0
SPLINE
5
382
100
AcDbEntity
8
0
100
AcDbSpline
70
0
71
3
72
10
73
6
74
0
42
0.000000001
43
0.0000000001
44
0.0000000001
40
-0.089933653802232241
40
-0.089933653802232241
40
-0.089933653802232241
40
-0.089933653802232241
40
-0.048164335269682217
40
-0.048164335269682217
40
-0
40
-0
40
-0
40
-0
10
0.94897471499127029
20
-0.27374196600511869
30
0
10
0.94282874225860391
20
-0.2687345355660094
30
0
10
0.93053363894704655
20
-0.25893626269426073
30
-4.3709567898628207e-17
10
0.89750437444607856
20
-0.23825644830889908
30
-4.3709567898628207e-17
10
0.88400569838493981
20
-0.23259763305410436
30
0
10
0.87790728327439571
20
-0.23093583308782853
30
0
0
LINE
5
383
100
AcDbEntity
8
0
100
AcDbLine
10
0.8779072832743956
20
-0.23093583308782858
30
0
11
0.84990900208821296
21
-0.22359986334108073
31
0
0
ARC
5
384
100
AcDbEntity
8
0
100
AcDbCircle
10
0.85486088176322861
20
-0.20470064151663192
30
0
40
0.019537187563350961
210
0
220
0
230
1
100
AcDbArc
50
166.59141901124164
51
255.3176960914613
0
ARC
5
385
100
AcDbEntity
8
0
100
AcDbCircle
10
-9.3178424876602916e-05
20
-0.00088653892490056301
30
0
40
0.85937500000000233
210
0
220
0
230
1
100
AcDbArc
50
346.59141901124161
51
349.40858098875833
0
ARC
5
386
100
AcDbEntity
8
0
100
AcDbCircle
10
0.86384488365273338
20
-0.16243423572365767
30
0
40
0.019537187563350988
210
0
220
-0
230
1
100
AcDbArc
50
80.682303908539325
51
169.40858098875941
0
LINE
5
387
100
AcDbEntity
8
0
100
AcDbLine
10
0.86700812251045112
20
-0.14315482655702136
30
0
11
0.89556963281838642
21
-0.14784101161903662
31
0
0
SPLINE
5
388
100
AcDbEntity
8
0
100
AcDbSpline
70
0
71
3
72
10
73
6
74
0
42
0.000000001
43
0.0000000001
44
0.0000000001
40
-0.13373863935905417
40
-0.13373863935905417
40
-0.13373863935905417
40
-0.13373863935905417
40
-0.061904626264990166
40
-0.061904626264990166
40
-0
40
-0
40
-0
40
-0
10
0.89556963281838664
20
-0.14784101161903668
30
0
10
0.90183516984379752
20
-0.14880617165542406
30
0
10
0.91650748761520417
20
-0.14912328224429866
30
0
10
0.95504396000280489
20
-0.14365885595163475
30
0
10
0.97023664976698598
20
-0.13972390109223926
30
0
10
0.97807657837783424
20
-0.13759449874816568
30
0
0
ARC
5
389
100
AcDbEntity
8
0
100
AcDbCircle
10
0.97283430589761799
20
-0.11829375836746606
30
0
40
0.019999999999999987
210
0
220
0
230
1
100
AcDbArc
50
285.19551415399371
51
353.06703978816017
0
ARC
5
390
100
AcDbEntity
8
0
100
AcDbCircle
10
0
20
0
30
0
40
1.0000000000000002
210
0
220
0
230
1
100
AcDbArc
50
353.06703978816017
51
354.88051470265015
0
ARC
5
391
100
AcDbEntity
8
0
100
AcDbCircle
10
0.97609056088090929
20
-0.087448367390081924
30
0
40
0.020000000000000573
210
0
220
0
230
1
100
AcDbArc
50
-5.1194852973501197
51
62.802301869372911
0
SPLINE
5
392
100
AcDbEntity
8
0
100
AcDbSpline
70
0
71
3
72
10
73
6
74
0
42
0.000000001
43
0.0000000001
44
0.0000000001
40
-0.089934675541830753
40
-0.089934675541830753
40
-0.089934675541830753
40
-0.089934675541830753
40
-0.048319165101940377
40
-0.048319165101940377
40
-0
40
-0
40
-0
40
-0
10
0.98523180476984307
20
-0.069659672661040228
30
0
10
0.97798978078655641
20
-0.065938145677315638
30
0
10
0.9639493295230569
20
-0.058932440116758036
30
-4.3709567898628207e-17
10
0.92739588346668422
20
-0.045575717474575679
30
-4.3709567898628207e-17
10
0.91297492686459991
20
-0.042834307856532333
30
0
10
0.90664398277516067
20
-0.042475604605304036
30
0
0
LINE
5
393
100
AcDbEntity
8
0
100
AcDbLine
10
0.90664398277516067
20
-0.042475604605304036
30
0
11
0.87773229733439173
21
-0.041121113379877172
31
0
0
ARC
5
394
100
AcDbEntity
8
0
100
AcDbCircle
10
0.87864659739296969
20
-0.021605331220597955
30
0
40
0.019537187563350888
210
0
220
0
230
1
100
AcDbArc
50
178.59141901124161
51
267.31769609146141
0
ARC
5
395
100
AcDbEntity
8
0
100
AcDbCircle
10
0
20
0
30
0
40
0.85937500000000022
210
0
220
0
230
1
100
AcDbArc
50
-1.4085809887584197
51
1.4085809887583951
0
ARC
5
396
100
AcDbEntity
8
0
100
AcDbCircle
10
0.87864659739296969
20
0.021605331220597955
30
0
40
0.019537187563350999
210
0
220
0
230
1
100
AcDbArc
50
92.682303908538572
51
181.40858098875864
0
LINE
5
397
100
AcDbEntity
8
0
100
AcDbLine
10
0.87773229733439173
20
0.041121113379877179
30
0
11
0.90664398277516056
21
0.042475604605304064
31
0
0
SPLINE
5
398
100
AcDbEntity
8
0
100
AcDbSpline
70
0
71
3
72
10
73
6
74
0
42
0.000000001
43
0.0000000001
44
0.0000000001
40
-0.13408271364902732
40
-0.13408271364902732
40
-0.13408271364902732
40
-0.13408271364902732
40
-0.062044150776479824
40
-0.062044150776479824
40
-0
40
-0
40
-0
40
-0
10
0.90664398277516067
20
0.042475604605304036
30
0
10
0.9129749268663353
20
0.042834307856630643
30
0
10
0.92739588346957591
20
0.045575717475612711
30
-4.3709567898628207e-17
10
0.96394932951876622
20
0.058932440115207943
30
-4.3709567898628207e-17
10
0.97798978078446797
20
0.065938145675817919
30
0
10
0.98523180478711359
20
0.069659672669915226
30
0
0
ARC
5
399
100
AcDbEntity
8
0
100
AcDbCircle
10
0.97609056088090917
20
0.087448367390082007
30
0
40
0.020000000000000216
210
0
220
0
230
1
100
AcDbArc
50
-62.802301798471461
51
5.1194852973495282
0
LWPOLYLINE
5
400
100
AcDbEntity
8
0
100
AcDbPolyline
90
6
70
1
43
0.0
10
0.28867513459481287
20
-8.7419135797256413e-17
10
0.14433756729740632
20
0.24999999999999997
10
-0.14433756729740638
20
0.24999999999999997
10
-0.28867513459481287
20
0
10
-0.14433756729740635
20
-0.24999999999999997
10
0.14433756729740652
20
-0.24999999999999994
0
CIRCLE
5
401
100
AcDbEntity
8
0
100
AcDbCircle
10
-0.62499999999999989
20
-7.6540424946709566e-17
30
0
40
0.06350000000000007
210
0
220
0
230
-1
0
CIRCLE
5
402
100
AcDbEntity
8
0
100
AcDbCircle
10
-0.36915577963480145
20
0.50433025921733254
30
0
40
0.079999999999999932
210
0
220
0
230
-1
0
CIRCLE
5
403
100
AcDbEntity
8
0
100
AcDbCircle
10
0.36915577963480145
20
-0.50433025921733254
30
0
40
0.079999999999999988
210
0
220
0
230
-1
0
CIRCLE
5
404
100
AcDbEntity
8
0
100
AcDbCircle
10
-0.36915577963480145
20
-0.50433025921733254
30
0
40
0.10000000000000002
210
0
220
0
230
-1
0
CIRCLE
5
405
100
AcDbEntity
8
0
100
AcDbCircle
10
0.62499999999999989
20
-7.6540424946709566e-17
30
0
40
0.06350000000000007
210
0
220
0
230
-1
0
CIRCLE
5
406
100
AcDbEntity
8
0
100
AcDbCircle
10
0.36915577963480145
20
0.50433025921733254
30
0
40
0.10000000000000002
210
0
220
0
230
-1
0
ENDSEC
0
SECTION
2
OBJECTS
0
DICTIONARY
5
C
100
AcDbDictionary
3
ACAD_GROUP
350
D
3
ACAD_MLINESTYLE
350
17
0
DICTIONARY
5
D
100
AcDbDictionary
0
DICTIONARY
5
1A
330
C
100
AcDbDictionary
0
DICTIONARY
5
17
100
AcDbDictionary
0
ENDSEC
0
EOF
