ISO-10303-21;
HEADER;
/****************************************************************
 * Generated by software with PDE/Lib inside                    *
 * PDElib Version v51a, created Thu 01/14/2010                  *
 * ITI Transcendata (http://www.transcendata.com/)              *
 ****************************************************************/
FILE_DESCRIPTION((''),'2;1');
FILE_NAME('S:\\Engineering\\Public\\Projects\\FlatPack 2\\FP2 19in 600 15 INCH DEEP\\Workspace\\CAD LIBRARY\\PEM\\PEM NUTS\\METRIC\\S-M5-0-ZI.stp','2012-07-03T07:08:34',('stlaus'),(''),'Autodesk Inventor 2011','Autodesk Inventor 2011','');
FILE_SCHEMA(('AUTOMOTIVE_DESIGN { 1 0 10303 214 1 1 1 1 }'));
ENDSEC;
DATA;
#5=APPLICATION_CONTEXT('automotive design');
#6=APPLICATION_PROTOCOL_DEFINITION('International Standard','automotive_design',2001,#5);
#7=PRODUCT_CONTEXT('',#5,'mechanical');
#8=PRODUCT('Assembly1','Assembly1',$,(#7));
#9=PRODUCT_RELATED_PRODUCT_CATEGORY('part',$,(#8));
#10=PRODUCT_DEFINITION_FORMATION('',$,#8);
#11=PRODUCT_DEFINITION_CONTEXT('part definition',#5,'design');
#12=PRODUCT_DEFINITION('',$,#10,#11);
#18=(NAMED_UNIT(*)PLANE_ANGLE_UNIT()SI_UNIT($,.RADIAN.));
#19=DIMENSIONAL_EXPONENTS(0.0,0.0,0.0,0.0,0.0,0.0,0.0);
#20=PLANE_ANGLE_MEASURE_WITH_UNIT(PLANE_ANGLE_MEASURE(0.017453292500000),#18);
#24=(CONVERSION_BASED_UNIT('DEGREE',#20)NAMED_UNIT(#19)PLANE_ANGLE_UNIT());
#28=(NAMED_UNIT(*)SI_UNIT($,.STERADIAN.)SOLID_ANGLE_UNIT());
#32=(LENGTH_UNIT()NAMED_UNIT(*)SI_UNIT(.CENTI.,.METRE.));
#33=DIMENSIONAL_EXPONENTS(1.0,0.0,0.0,0.0,0.0,0.0,0.0);
#34=LENGTH_MEASURE_WITH_UNIT(LENGTH_MEASURE(2.540000000000000),#32);
#38=(CONVERSION_BASED_UNIT('INCH',#34)LENGTH_UNIT()NAMED_UNIT(#33));
#40=UNCERTAINTY_MEASURE_WITH_UNIT(LENGTH_MEASURE(0.000393700787402),#38,'DISTANCE_ACCURACY_VALUE','');
#42=(GEOMETRIC_REPRESENTATION_CONTEXT(3)GLOBAL_UNCERTAINTY_ASSIGNED_CONTEXT((#40))GLOBAL_UNIT_ASSIGNED_CONTEXT((#24,#28,#38))REPRESENTATION_CONTEXT('None','None'));
#43=AXIS2_PLACEMENT_3D('',#44,#45,#46);
#44=CARTESIAN_POINT('',(0.0,0.0,0.0));
#45=DIRECTION('',(0.0,0.0,1.0));
#46=DIRECTION('',(1.0,0.0,0.0));
#47=SHAPE_REPRESENTATION('',(#43,#306),#42);
#48=PRODUCT_DEFINITION_SHAPE('','',#12);
#49=SHAPE_DEFINITION_REPRESENTATION(#48,#47);
#50=APPLICATION_CONTEXT('automotive design');
#51=APPLICATION_PROTOCOL_DEFINITION('International Standard','automotive_design',2001,#50);
#52=PRODUCT_CONTEXT('',#50,'mechanical');
#53=PRODUCT('SS-M5-0-ZI','SS-M5-0-ZI',$,(#52));
#54=PRODUCT_RELATED_PRODUCT_CATEGORY('part',$,(#53));
#55=PRODUCT_DEFINITION_FORMATION('',$,#53);
#56=PRODUCT_DEFINITION_CONTEXT('part definition',#50,'design');
#57=PRODUCT_DEFINITION('',$,#55,#56);
#63=(NAMED_UNIT(*)PLANE_ANGLE_UNIT()SI_UNIT($,.RADIAN.));
#64=DIMENSIONAL_EXPONENTS(0.0,0.0,0.0,0.0,0.0,0.0,0.0);
#65=PLANE_ANGLE_MEASURE_WITH_UNIT(PLANE_ANGLE_MEASURE(0.017453292500000),#63);
#69=(CONVERSION_BASED_UNIT('DEGREE',#65)NAMED_UNIT(#64)PLANE_ANGLE_UNIT());
#73=(NAMED_UNIT(*)SI_UNIT($,.STERADIAN.)SOLID_ANGLE_UNIT());
#77=(LENGTH_UNIT()NAMED_UNIT(*)SI_UNIT(.MILLI.,.METRE.));
#79=UNCERTAINTY_MEASURE_WITH_UNIT(LENGTH_MEASURE(0.010000000000000),#77,'DISTANCE_ACCURACY_VALUE','');
#81=(GEOMETRIC_REPRESENTATION_CONTEXT(3)GLOBAL_UNCERTAINTY_ASSIGNED_CONTEXT((#79))GLOBAL_UNIT_ASSIGNED_CONTEXT((#69,#73,#77))REPRESENTATION_CONTEXT('None','None'));
#82=AXIS2_PLACEMENT_3D('',#83,#84,#85);
#83=CARTESIAN_POINT('',(0.0,0.0,0.0));
#84=DIRECTION('',(0.0,0.0,1.0));
#85=DIRECTION('',(1.0,0.0,0.0));
#86=SHAPE_REPRESENTATION('',(#82),#81);
#87=PRODUCT_DEFINITION_SHAPE('','',#57);
#88=SHAPE_DEFINITION_REPRESENTATION(#87,#86);
#94=(NAMED_UNIT(*)PLANE_ANGLE_UNIT()SI_UNIT($,.RADIAN.));
#95=DIMENSIONAL_EXPONENTS(0.0,0.0,0.0,0.0,0.0,0.0,0.0);
#96=PLANE_ANGLE_MEASURE_WITH_UNIT(PLANE_ANGLE_MEASURE(0.017453292500000),#94);
#100=(CONVERSION_BASED_UNIT('DEGREE',#96)NAMED_UNIT(#95)PLANE_ANGLE_UNIT());
#104=(NAMED_UNIT(*)SI_UNIT($,.STERADIAN.)SOLID_ANGLE_UNIT());
#108=(LENGTH_UNIT()NAMED_UNIT(*)SI_UNIT(.MILLI.,.METRE.));
#110=UNCERTAINTY_MEASURE_WITH_UNIT(LENGTH_MEASURE(0.000001000000000),#108,'DISTANCE_ACCURACY_VALUE','');
#112=(GEOMETRIC_REPRESENTATION_CONTEXT(3)GLOBAL_UNCERTAINTY_ASSIGNED_CONTEXT((#110))GLOBAL_UNIT_ASSIGNED_CONTEXT((#100,#104,#108))REPRESENTATION_CONTEXT('','3D'));
#113=CARTESIAN_POINT('',(-0.840200000000000,-0.417200000000001,0.0));
#114=DIRECTION('',(-1.0,0.0,0.0));
#115=DIRECTION('',(0.0,-1.0,0.0));
#116=AXIS2_PLACEMENT_3D('',#113,#114,#115);
#117=CONICAL_SURFACE('',#116,2.625000000000001,45.000000000000043);
#118=CARTESIAN_POINT('',(-0.715200000000000,2.082800000000000,3.061516E-016));
#119=VERTEX_POINT('',#118);
#120=CARTESIAN_POINT('',(-0.715200000000000,-0.417200000000001,0.0));
#121=DIRECTION('',(1.0,0.0,0.0));
#122=DIRECTION('',(0.0,-1.0,0.0));
#123=AXIS2_PLACEMENT_3D('',#120,#121,#122);
#124=CIRCLE('',#123,2.500000000000001);
#125=EDGE_CURVE('',#119,#119,#124,.T.);
#126=ORIENTED_EDGE('',*,*,#125,.T.);
#127=EDGE_LOOP('',(#126));
#128=FACE_OUTER_BOUND('',#127,.T.);
#129=CARTESIAN_POINT('',(-0.965200000000000,2.332800000000001,-3.367667E-016));
#130=VERTEX_POINT('',#129);
#131=CARTESIAN_POINT('',(-0.965200000000000,-0.417200000000001,0.0));
#132=DIRECTION('',(-1.0,0.0,0.0));
#133=DIRECTION('',(0.0,-1.0,0.0));
#134=AXIS2_PLACEMENT_3D('',#131,#132,#133);
#135=CIRCLE('',#134,2.750000000000001);
#136=EDGE_CURVE('',#130,#130,#135,.T.);
#137=ORIENTED_EDGE('',*,*,#136,.T.);
#138=EDGE_LOOP('',(#137));
#139=FACE_BOUND('',#138,.T.);
#140=ADVANCED_FACE('',(#128,#139),#117,.F.);
#141=CARTESIAN_POINT('',(0.414800000000001,-0.417200000000001,0.0));
#142=DIRECTION('',(1.0,0.0,0.0));
#143=DIRECTION('',(0.0,1.0,0.0));
#144=AXIS2_PLACEMENT_3D('',#141,#142,#143);
#145=CYLINDRICAL_SURFACE('',#144,2.500000000000001);
#146=CARTESIAN_POINT('',(1.544800000000003,2.082800000000000,-3.061516E-016));
#147=VERTEX_POINT('',#146);
#148=CARTESIAN_POINT('',(1.544800000000003,-0.417200000000001,0.0));
#149=DIRECTION('',(-1.0,0.0,0.0));
#150=DIRECTION('',(0.0,-1.0,0.0));
#151=AXIS2_PLACEMENT_3D('',#148,#149,#150);
#152=CIRCLE('',#151,2.500000000000001);
#153=EDGE_CURVE('',#147,#147,#152,.T.);
#154=ORIENTED_EDGE('',*,*,#153,.F.);
#155=EDGE_LOOP('',(#154));
#156=FACE_OUTER_BOUND('',#155,.T.);
#157=ORIENTED_EDGE('',*,*,#125,.F.);
#158=EDGE_LOOP('',(#157));
#159=FACE_BOUND('',#158,.T.);
#160=ADVANCED_FACE('',(#156,#159),#145,.F.);
#161=CARTESIAN_POINT('',(-0.965200000000000,2.427800000000000,0.0));
#162=DIRECTION('',(-1.0,0.0,0.0));
#163=DIRECTION('',(0.0,0.0,1.0));
#164=AXIS2_PLACEMENT_3D('',#161,#162,#163);
#165=PLANE('',#164);
#166=CARTESIAN_POINT('',(-0.965200000000000,2.772799999999999,0.0));
#167=VERTEX_POINT('',#166);
#168=CARTESIAN_POINT('',(-0.965200000000000,-0.417200000000001,0.0));
#169=DIRECTION('',(1.0,0.0,0.0));
#170=DIRECTION('',(0.0,1.0,0.0));
#171=AXIS2_PLACEMENT_3D('',#168,#169,#170);
#172=CIRCLE('',#171,3.190000000000000);
#173=EDGE_CURVE('',#167,#167,#172,.T.);
#174=ORIENTED_EDGE('',*,*,#173,.F.);
#175=EDGE_LOOP('',(#174));
#176=FACE_OUTER_BOUND('',#175,.T.);
#177=ORIENTED_EDGE('',*,*,#136,.F.);
#178=EDGE_LOOP('',(#177));
#179=FACE_BOUND('',#178,.T.);
#180=ADVANCED_FACE('',(#176,#179),#165,.T.);
#181=CARTESIAN_POINT('',(1.669800000000002,-0.417200000000001,0.0));
#182=DIRECTION('',(1.0,0.0,0.0));
#183=DIRECTION('',(0.0,-1.0,0.0));
#184=AXIS2_PLACEMENT_3D('',#181,#182,#183);
#185=CONICAL_SURFACE('',#184,2.625000000000001,45.000000000000071);
#186=CARTESIAN_POINT('',(1.794800000000002,2.332800000000001,3.367667E-016));
#187=VERTEX_POINT('',#186);
#188=CARTESIAN_POINT('',(1.794800000000002,-0.417200000000001,0.0));
#189=DIRECTION('',(1.0,0.0,0.0));
#190=DIRECTION('',(0.0,-1.0,0.0));
#191=AXIS2_PLACEMENT_3D('',#188,#189,#190);
#192=CIRCLE('',#191,2.750000000000001);
#193=EDGE_CURVE('',#187,#187,#192,.T.);
#194=ORIENTED_EDGE('',*,*,#193,.T.);
#195=EDGE_LOOP('',(#194));
#196=FACE_OUTER_BOUND('',#195,.T.);
#197=ORIENTED_EDGE('',*,*,#153,.T.);
#198=EDGE_LOOP('',(#197));
#199=FACE_BOUND('',#198,.T.);
#200=ADVANCED_FACE('',(#196,#199),#185,.F.);
#201=CARTESIAN_POINT('',(1.794800000000002,3.007800000000000,0.0));
#202=DIRECTION('',(1.0,0.0,0.0));
#203=DIRECTION('',(0.0,0.0,-1.0));
#204=AXIS2_PLACEMENT_3D('',#201,#202,#203);
#205=PLANE('',#204);
#206=CARTESIAN_POINT('',(1.794800000000002,3.682799999999999,-5.020886E-016));
#207=VERTEX_POINT('',#206);
#208=CARTESIAN_POINT('',(1.794800000000002,-0.417200000000001,0.0));
#209=DIRECTION('',(-1.0,0.0,0.0));
#210=DIRECTION('',(0.0,-1.0,0.0));
#211=AXIS2_PLACEMENT_3D('',#208,#209,#210);
#212=CIRCLE('',#211,4.100000000000001);
#213=EDGE_CURVE('',#207,#207,#212,.T.);
#214=ORIENTED_EDGE('',*,*,#213,.F.);
#215=EDGE_LOOP('',(#214));
#216=FACE_OUTER_BOUND('',#215,.T.);
#217=ORIENTED_EDGE('',*,*,#193,.F.);
#218=EDGE_LOOP('',(#217));
#219=FACE_BOUND('',#218,.T.);
#220=ADVANCED_FACE('',(#216,#219),#205,.T.);
#221=CARTESIAN_POINT('',(1.669800000000002,-0.417200000000001,0.0));
#222=DIRECTION('',(-1.0,0.0,0.0));
#223=DIRECTION('',(0.0,-1.0,0.0));
#224=AXIS2_PLACEMENT_3D('',#221,#222,#223);
#225=CONICAL_SURFACE('',#224,4.225000000000001,44.999999999999993);
#226=CARTESIAN_POINT('',(1.544800000000002,3.932799999999999,5.327038E-016));
#227=VERTEX_POINT('',#226);
#228=CARTESIAN_POINT('',(1.544800000000002,-0.417200000000001,0.0));
#229=DIRECTION('',(1.0,0.0,0.0));
#230=DIRECTION('',(0.0,-1.0,0.0));
#231=AXIS2_PLACEMENT_3D('',#228,#229,#230);
#232=CIRCLE('',#231,4.350000000000001);
#233=EDGE_CURVE('',#227,#227,#232,.T.);
#234=ORIENTED_EDGE('',*,*,#233,.T.);
#235=EDGE_LOOP('',(#234));
#236=FACE_OUTER_BOUND('',#235,.T.);
#237=ORIENTED_EDGE('',*,*,#213,.T.);
#238=EDGE_LOOP('',(#237));
#239=FACE_BOUND('',#238,.T.);
#240=ADVANCED_FACE('',(#236,#239),#225,.T.);
#241=CARTESIAN_POINT('',(0.794800000000001,-0.417200000000001,0.0));
#242=DIRECTION('',(1.0,0.0,0.0));
#243=DIRECTION('',(0.0,1.0,0.0));
#244=AXIS2_PLACEMENT_3D('',#241,#242,#243);
#245=CYLINDRICAL_SURFACE('',#244,4.350000000000001);
#246=CARTESIAN_POINT('',(-0.205200000000000,3.932799999999999,0.0));
#247=VERTEX_POINT('',#246);
#248=CARTESIAN_POINT('',(-0.205200000000000,-0.417200000000001,0.0));
#249=DIRECTION('',(1.0,0.0,0.0));
#250=DIRECTION('',(0.0,1.0,0.0));
#251=AXIS2_PLACEMENT_3D('',#248,#249,#250);
#252=CIRCLE('',#251,4.350000000000001);
#253=EDGE_CURVE('',#247,#247,#252,.T.);
#254=ORIENTED_EDGE('',*,*,#253,.T.);
#255=EDGE_LOOP('',(#254));
#256=FACE_OUTER_BOUND('',#255,.T.);
#257=ORIENTED_EDGE('',*,*,#233,.F.);
#258=EDGE_LOOP('',(#257));
#259=FACE_BOUND('',#258,.T.);
#260=ADVANCED_FACE('',(#256,#259),#245,.T.);
#261=CARTESIAN_POINT('',(-0.205200000000000,3.352799999999999,0.0));
#262=DIRECTION('',(-1.0,0.0,0.0));
#263=DIRECTION('',(0.0,0.0,1.0));
#264=AXIS2_PLACEMENT_3D('',#261,#262,#263);
#265=PLANE('',#264);
#266=ORIENTED_EDGE('',*,*,#253,.F.);
#267=EDGE_LOOP('',(#266));
#268=FACE_OUTER_BOUND('',#267,.T.);
#269=CARTESIAN_POINT('',(-0.205200000000000,2.772799999999999,0.0));
#270=VERTEX_POINT('',#269);
#271=CARTESIAN_POINT('',(-0.205200000000000,-0.417200000000001,0.0));
#272=DIRECTION('',(1.0,0.0,0.0));
#273=DIRECTION('',(0.0,1.0,0.0));
#274=AXIS2_PLACEMENT_3D('',#271,#272,#273);
#275=CIRCLE('',#274,3.190000000000000);
#276=EDGE_CURVE('',#270,#270,#275,.T.);
#277=ORIENTED_EDGE('',*,*,#276,.T.);
#278=EDGE_LOOP('',(#277));
#279=FACE_BOUND('',#278,.T.);
#280=ADVANCED_FACE('',(#268,#279),#265,.T.);
#281=CARTESIAN_POINT('',(-0.585200000000000,-0.417200000000001,0.0));
#282=DIRECTION('',(1.0,0.0,0.0));
#283=DIRECTION('',(0.0,1.0,0.0));
#284=AXIS2_PLACEMENT_3D('',#281,#282,#283);
#285=CYLINDRICAL_SURFACE('',#284,3.190000000000000);
#286=ORIENTED_EDGE('',*,*,#276,.F.);
#287=EDGE_LOOP('',(#286));
#288=FACE_OUTER_BOUND('',#287,.T.);
#289=ORIENTED_EDGE('',*,*,#173,.T.);
#290=EDGE_LOOP('',(#289));
#291=FACE_BOUND('',#290,.T.);
#292=ADVANCED_FACE('',(#288,#291),#285,.T.);
#293=CLOSED_SHELL('',(#140,#160,#180,#200,#220,#240,#260,#280,#292));
#294=MANIFOLD_SOLID_BREP('Solid1',#293);
#295=COLOUR_RGB('Zinc',0.678431391716003,0.768627464771271,0.811764717102051);
#296=FILL_AREA_STYLE_COLOUR('Zinc',#295);
#297=FILL_AREA_STYLE('Zinc',(#296));
#298=SURFACE_STYLE_FILL_AREA(#297);
#299=SURFACE_SIDE_STYLE('Zinc',(#298));
#300=SURFACE_STYLE_USAGE(.BOTH.,#299);
#301=PRESENTATION_STYLE_ASSIGNMENT((#300));
#302=STYLED_ITEM('',(#301),#294);
#303=MECHANICAL_DESIGN_GEOMETRIC_PRESENTATION_REPRESENTATION('',(#302),#42);
#304=ADVANCED_BREP_SHAPE_REPRESENTATION('ABSR',(#294),#81);
#305=SHAPE_REPRESENTATION_RELATIONSHIP('SRR','None',#304,#86);
#306=AXIS2_PLACEMENT_3D('',#307,#308,#309);
#307=CARTESIAN_POINT('',(0.0,0.0,0.0));
#308=DIRECTION('',(0.0,0.0,1.0));
#309=DIRECTION('',(1.0,0.0,0.0));
#310=NEXT_ASSEMBLY_USAGE_OCCURRENCE('SS-M5-0-ZI:1','SS-M5-0-ZI:1','SS-M5-0-ZI:1',#12,#57,'SS-M5-0-ZI:1');
#311=PRODUCT_DEFINITION_SHAPE('SS-M5-0-ZI:1','SS-M5-0-ZI:1',#310);
#312=ITEM_DEFINED_TRANSFORMATION('SS-M5-0-ZI:1','SS-M5-0-ZI:1',#82,#306);
#316=(REPRESENTATION_RELATIONSHIP('SS-M5-0-ZI:1','SS-M5-0-ZI:1',#86,#47)REPRESENTATION_RELATIONSHIP_WITH_TRANSFORMATION(#312)SHAPE_REPRESENTATION_RELATIONSHIP());
#317=CONTEXT_DEPENDENT_SHAPE_REPRESENTATION(#316,#311);
ENDSEC;
END-ISO-10303-21;
