ISO-10303-21;
HEADER;
/****************************************************************
 * Generated by software with PDE/Lib inside                    *
 * PDElib Version v51a, created Thu 01/14/2010                  *
 * ITI Transcendata (http://www.transcendata.com/)              *
 ****************************************************************/
FILE_DESCRIPTION((''),'2;1');
FILE_NAME('S:\\Engineering\\Public\\Projects\\FlatPack 2\\FP2 19in 600 15 INCH DEEP\\Workspace\\111junk\\BSO-832-16-ZI.stp','2012-07-02T08:00:08',('stlaus'),(''),'Autodesk Inventor 2011','Autodesk Inventor 2011','');
FILE_SCHEMA(('AUTOMOTIVE_DESIGN { 1 0 10303 214 1 1 1 1 }'));
ENDSEC;
DATA;
#5=APPLICATION_CONTEXT('automotive design');
#6=APPLICATION_PROTOCOL_DEFINITION('International Standard','automotive_design',2001,#5);
#7=PRODUCT_CONTEXT('',#5,'mechanical');
#8=PRODUCT('Assembly1','Assembly1',$,(#7));
#9=PRODUCT_RELATED_PRODUCT_CATEGORY('part',$,(#8));
#10=PRODUCT_DEFINITION_FORMATION('',$,#8);
#11=PRODUCT_DEFINITION_CONTEXT('part definition',#5,'design');
#12=PRODUCT_DEFINITION('',$,#10,#11);
#18=(NAMED_UNIT(*)PLANE_ANGLE_UNIT()SI_UNIT($,.RADIAN.));
#19=DIMENSIONAL_EXPONENTS(0.0,0.0,0.0,0.0,0.0,0.0,0.0);
#20=PLANE_ANGLE_MEASURE_WITH_UNIT(PLANE_ANGLE_MEASURE(0.017453292500000),#18);
#24=(CONVERSION_BASED_UNIT('DEGREE',#20)NAMED_UNIT(#19)PLANE_ANGLE_UNIT());
#28=(NAMED_UNIT(*)SI_UNIT($,.STERADIAN.)SOLID_ANGLE_UNIT());
#32=(LENGTH_UNIT()NAMED_UNIT(*)SI_UNIT(.CENTI.,.METRE.));
#33=DIMENSIONAL_EXPONENTS(1.0,0.0,0.0,0.0,0.0,0.0,0.0);
#34=LENGTH_MEASURE_WITH_UNIT(LENGTH_MEASURE(2.540000000000000),#32);
#38=(CONVERSION_BASED_UNIT('INCH',#34)LENGTH_UNIT()NAMED_UNIT(#33));
#40=UNCERTAINTY_MEASURE_WITH_UNIT(LENGTH_MEASURE(0.000393700787402),#38,'DISTANCE_ACCURACY_VALUE','');
#42=(GEOMETRIC_REPRESENTATION_CONTEXT(3)GLOBAL_UNCERTAINTY_ASSIGNED_CONTEXT((#40))GLOBAL_UNIT_ASSIGNED_CONTEXT((#24,#28,#38))REPRESENTATION_CONTEXT('None','None'));
#43=AXIS2_PLACEMENT_3D('',#44,#45,#46);
#44=CARTESIAN_POINT('',(0.0,0.0,0.0));
#45=DIRECTION('',(0.0,0.0,1.0));
#46=DIRECTION('',(1.0,0.0,0.0));
#47=SHAPE_REPRESENTATION('',(#43,#666),#42);
#48=PRODUCT_DEFINITION_SHAPE('','',#12);
#49=SHAPE_DEFINITION_REPRESENTATION(#48,#47);
#50=APPLICATION_CONTEXT('automotive design');
#51=APPLICATION_PROTOCOL_DEFINITION('International Standard','automotive_design',2001,#50);
#52=PRODUCT_CONTEXT('',#50,'mechanical');
#53=PRODUCT('BSO-832-16 PEM BLIND STANDOFF','BSO-832-16 PEM BLIND STANDOFF',$,(#52));
#54=PRODUCT_RELATED_PRODUCT_CATEGORY('part',$,(#53));
#55=PRODUCT_DEFINITION_FORMATION('',$,#53);
#56=PRODUCT_DEFINITION_CONTEXT('part definition',#50,'design');
#57=PRODUCT_DEFINITION('',$,#55,#56);
#63=(NAMED_UNIT(*)PLANE_ANGLE_UNIT()SI_UNIT($,.RADIAN.));
#64=DIMENSIONAL_EXPONENTS(0.0,0.0,0.0,0.0,0.0,0.0,0.0);
#65=PLANE_ANGLE_MEASURE_WITH_UNIT(PLANE_ANGLE_MEASURE(0.017453292500000),#63);
#69=(CONVERSION_BASED_UNIT('DEGREE',#65)NAMED_UNIT(#64)PLANE_ANGLE_UNIT());
#73=(NAMED_UNIT(*)SI_UNIT($,.STERADIAN.)SOLID_ANGLE_UNIT());
#77=(LENGTH_UNIT()NAMED_UNIT(*)SI_UNIT(.CENTI.,.METRE.));
#78=DIMENSIONAL_EXPONENTS(1.0,0.0,0.0,0.0,0.0,0.0,0.0);
#79=LENGTH_MEASURE_WITH_UNIT(LENGTH_MEASURE(2.540000000000000),#77);
#83=(CONVERSION_BASED_UNIT('INCH',#79)LENGTH_UNIT()NAMED_UNIT(#78));
#85=UNCERTAINTY_MEASURE_WITH_UNIT(LENGTH_MEASURE(0.000393700787402),#83,'DISTANCE_ACCURACY_VALUE','');
#87=(GEOMETRIC_REPRESENTATION_CONTEXT(3)GLOBAL_UNCERTAINTY_ASSIGNED_CONTEXT((#85))GLOBAL_UNIT_ASSIGNED_CONTEXT((#69,#73,#83))REPRESENTATION_CONTEXT('None','None'));
#88=AXIS2_PLACEMENT_3D('',#89,#90,#91);
#89=CARTESIAN_POINT('',(0.0,0.0,0.0));
#90=DIRECTION('',(0.0,0.0,1.0));
#91=DIRECTION('',(1.0,0.0,0.0));
#92=SHAPE_REPRESENTATION('',(#88),#87);
#93=PRODUCT_DEFINITION_SHAPE('','',#57);
#94=SHAPE_DEFINITION_REPRESENTATION(#93,#92);
#100=(NAMED_UNIT(*)PLANE_ANGLE_UNIT()SI_UNIT($,.RADIAN.));
#101=DIMENSIONAL_EXPONENTS(0.0,0.0,0.0,0.0,0.0,0.0,0.0);
#102=PLANE_ANGLE_MEASURE_WITH_UNIT(PLANE_ANGLE_MEASURE(0.017453292500000),#100);
#106=(CONVERSION_BASED_UNIT('DEGREE',#102)NAMED_UNIT(#101)PLANE_ANGLE_UNIT());
#110=(NAMED_UNIT(*)SI_UNIT($,.STERADIAN.)SOLID_ANGLE_UNIT());
#114=(LENGTH_UNIT()NAMED_UNIT(*)SI_UNIT(.MILLI.,.METRE.));
#116=UNCERTAINTY_MEASURE_WITH_UNIT(LENGTH_MEASURE(0.000001000000000),#114,'DISTANCE_ACCURACY_VALUE','');
#118=(GEOMETRIC_REPRESENTATION_CONTEXT(3)GLOBAL_UNCERTAINTY_ASSIGNED_CONTEXT((#116))GLOBAL_UNIT_ASSIGNED_CONTEXT((#106,#110,#114))REPRESENTATION_CONTEXT('','3D'));
#119=CARTESIAN_POINT('',(0.0,0.0,0.496000000000000));
#120=DIRECTION('',(0.0,0.0,1.0));
#121=DIRECTION('',(-1.0,0.0,0.0));
#122=AXIS2_PLACEMENT_3D('',#119,#120,#121);
#123=CONICAL_SURFACE('',#122,0.086000000000000,45.000000000000156);
#124=CARTESIAN_POINT('',(0.082000000000000,-1.004177E-017,0.492000000000000));
#125=VERTEX_POINT('',#124);
#126=CARTESIAN_POINT('',(0.0,0.0,0.492000000000000));
#127=DIRECTION('',(0.0,0.0,-1.0));
#128=DIRECTION('',(-1.0,0.0,0.0));
#129=AXIS2_PLACEMENT_3D('',#126,#127,#128);
#130=CIRCLE('',#129,0.082000000000000);
#131=EDGE_CURVE('',#125,#125,#130,.T.);
#132=ORIENTED_EDGE('',*,*,#131,.T.);
#133=EDGE_LOOP('',(#132));
#134=FACE_OUTER_BOUND('',#133,.T.);
#135=CARTESIAN_POINT('',(0.090000000000000,1.102146E-017,0.500000000000000));
#136=VERTEX_POINT('',#135);
#137=CARTESIAN_POINT('',(0.0,0.0,0.500000000000000));
#138=DIRECTION('',(0.0,0.0,1.0));
#139=DIRECTION('',(-1.0,0.0,0.0));
#140=AXIS2_PLACEMENT_3D('',#137,#138,#139);
#141=CIRCLE('',#140,0.090000000000000);
#142=EDGE_CURVE('',#136,#136,#141,.T.);
#143=ORIENTED_EDGE('',*,*,#142,.T.);
#144=EDGE_LOOP('',(#143));
#145=FACE_BOUND('',#144,.T.);
#146=ADVANCED_FACE('',(#134,#145),#123,.F.);
#147=CARTESIAN_POINT('',(0.0,0.0,0.500000000000000));
#148=DIRECTION('',(0.0,0.0,-1.0));
#149=DIRECTION('',(-1.0,0.0,0.0));
#150=AXIS2_PLACEMENT_3D('',#147,#148,#149);
#151=PLANE('',#150);
#152=CARTESIAN_POINT('',(0.137000000000000,-1.677711E-017,0.500000000000000));
#153=VERTEX_POINT('',#152);
#154=CARTESIAN_POINT('',(0.0,0.0,0.500000000000000));
#155=DIRECTION('',(0.0,0.0,-1.0));
#156=DIRECTION('',(-1.0,0.0,0.0));
#157=AXIS2_PLACEMENT_3D('',#154,#155,#156);
#158=CIRCLE('',#157,0.137000000000000);
#159=EDGE_CURVE('',#153,#153,#158,.T.);
#160=ORIENTED_EDGE('',*,*,#159,.F.);
#161=EDGE_LOOP('',(#160));
#162=FACE_OUTER_BOUND('',#161,.T.);
#163=ORIENTED_EDGE('',*,*,#142,.F.);
#164=EDGE_LOOP('',(#163));
#165=FACE_BOUND('',#164,.T.);
#166=ADVANCED_FACE('',(#162,#165),#151,.F.);
#167=CARTESIAN_POINT('',(0.0,0.0,0.325000000000000));
#168=DIRECTION('',(0.0,0.0,1.0));
#169=DIRECTION('',(1.0,0.0,0.0));
#170=AXIS2_PLACEMENT_3D('',#167,#168,#169);
#171=CYLINDRICAL_SURFACE('',#170,0.082000000000000);
#172=CARTESIAN_POINT('',(0.082000000000000,0.0,0.150000000000000));
#173=VERTEX_POINT('',#172);
#174=CARTESIAN_POINT('',(0.0,0.0,0.150000000000000));
#175=DIRECTION('',(0.0,0.0,1.0));
#176=DIRECTION('',(1.0,0.0,0.0));
#177=AXIS2_PLACEMENT_3D('',#174,#175,#176);
#178=CIRCLE('',#177,0.082000000000000);
#179=EDGE_CURVE('',#173,#173,#178,.T.);
#180=ORIENTED_EDGE('',*,*,#179,.F.);
#181=EDGE_LOOP('',(#180));
#182=FACE_OUTER_BOUND('',#181,.T.);
#183=ORIENTED_EDGE('',*,*,#131,.F.);
#184=EDGE_LOOP('',(#183));
#185=FACE_BOUND('',#184,.T.);
#186=ADVANCED_FACE('',(#182,#185),#171,.F.);
#187=CARTESIAN_POINT('',(0.0,0.0,0.498500000000000));
#188=DIRECTION('',(0.0,0.0,-1.0));
#189=DIRECTION('',(-1.0,0.0,0.0));
#190=AXIS2_PLACEMENT_3D('',#187,#188,#189);
#191=CONICAL_SURFACE('',#190,0.138500000000000,45.000000000000206);
#192=ORIENTED_EDGE('',*,*,#159,.T.);
#193=EDGE_LOOP('',(#192));
#194=FACE_OUTER_BOUND('',#193,.T.);
#195=CARTESIAN_POINT('',(0.140000000000000,1.714449E-017,0.497000000000000));
#196=VERTEX_POINT('',#195);
#197=CARTESIAN_POINT('',(0.0,0.0,0.497000000000000));
#198=DIRECTION('',(0.0,0.0,1.0));
#199=DIRECTION('',(-1.0,0.0,0.0));
#200=AXIS2_PLACEMENT_3D('',#197,#198,#199);
#201=CIRCLE('',#200,0.140000000000000);
#202=EDGE_CURVE('',#196,#196,#201,.T.);
#203=ORIENTED_EDGE('',*,*,#202,.T.);
#204=EDGE_LOOP('',(#203));
#205=FACE_BOUND('',#204,.T.);
#206=ADVANCED_FACE('',(#194,#205),#191,.T.);
#207=CARTESIAN_POINT('',(0.0,0.0,0.0));
#208=DIRECTION('',(0.0,0.0,1.0));
#209=DIRECTION('',(-1.0,0.0,0.0));
#210=AXIS2_PLACEMENT_3D('',#207,#208,#209);
#211=CYLINDRICAL_SURFACE('',#210,0.140000000000000);
#212=CARTESIAN_POINT('',(0.0,-0.140000000000000,0.102500000000000));
#213=VERTEX_POINT('',#212);
#214=CARTESIAN_POINT('',(0.0,0.0,0.102500000000000));
#215=DIRECTION('',(0.0,0.0,1.0));
#216=DIRECTION('',(-1.0,0.0,0.0));
#217=AXIS2_PLACEMENT_3D('',#214,#215,#216);
#218=CIRCLE('',#217,0.140000000000000);
#219=EDGE_CURVE('',#213,#213,#218,.T.);
#220=ORIENTED_EDGE('',*,*,#219,.T.);
#221=EDGE_LOOP('',(#220));
#222=FACE_OUTER_BOUND('',#221,.T.);
#223=ORIENTED_EDGE('',*,*,#202,.F.);
#224=EDGE_LOOP('',(#223));
#225=FACE_BOUND('',#224,.T.);
#226=ADVANCED_FACE('',(#222,#225),#211,.T.);
#227=CARTESIAN_POINT('',(0.0,0.0,0.125364714619870));
#228=DIRECTION('',(0.0,0.0,1.0));
#229=DIRECTION('',(1.0,0.0,0.0));
#230=AXIS2_PLACEMENT_3D('',#227,#228,#229);
#231=CONICAL_SURFACE('',#230,0.041000000000000,58.999999999999993);
#232=ORIENTED_EDGE('',*,*,#179,.T.);
#233=EDGE_LOOP('',(#232));
#234=FACE_OUTER_BOUND('',#233,.T.);
#235=ADVANCED_FACE('',(#234),#231,.F.);
#236=CARTESIAN_POINT('',(0.0,0.0,0.097500000000000));
#237=DIRECTION('',(0.0,0.0,-1.0));
#238=DIRECTION('',(0.0,-1.0,0.0));
#239=AXIS2_PLACEMENT_3D('',#236,#237,#238);
#240=CYLINDRICAL_SURFACE('',#239,0.130000000000000);
#241=CARTESIAN_POINT('',(0.0,-0.130000000000000,0.102500000000000));
#242=VERTEX_POINT('',#241);
#243=CARTESIAN_POINT('',(0.0,0.0,0.102500000000000));
#244=DIRECTION('',(0.0,0.0,-1.0));
#245=DIRECTION('',(0.0,-1.0,0.0));
#246=AXIS2_PLACEMENT_3D('',#243,#244,#245);
#247=CIRCLE('',#246,0.130000000000000);
#248=EDGE_CURVE('',#242,#242,#247,.T.);
#249=ORIENTED_EDGE('',*,*,#248,.T.);
#250=EDGE_LOOP('',(#249));
#251=FACE_OUTER_BOUND('',#250,.T.);
#252=CARTESIAN_POINT('',(0.0,-0.130000000000000,0.092500000000000));
#253=VERTEX_POINT('',#252);
#254=CARTESIAN_POINT('',(0.0,0.0,0.092500000000000));
#255=DIRECTION('',(0.0,0.0,-1.0));
#256=DIRECTION('',(0.0,-1.0,0.0));
#257=AXIS2_PLACEMENT_3D('',#254,#255,#256);
#258=CIRCLE('',#257,0.130000000000000);
#259=EDGE_CURVE('',#253,#253,#258,.T.);
#260=ORIENTED_EDGE('',*,*,#259,.F.);
#261=EDGE_LOOP('',(#260));
#262=FACE_BOUND('',#261,.T.);
#263=ADVANCED_FACE('',(#251,#262),#240,.T.);
#264=CARTESIAN_POINT('',(0.0,-0.135000000000000,0.102500000000000));
#265=DIRECTION('',(0.0,0.0,1.0));
#266=DIRECTION('',(1.0,0.0,0.0));
#267=AXIS2_PLACEMENT_3D('',#264,#265,#266);
#268=PLANE('',#267);
#269=ORIENTED_EDGE('',*,*,#219,.F.);
#270=EDGE_LOOP('',(#269));
#271=FACE_OUTER_BOUND('',#270,.T.);
#272=ORIENTED_EDGE('',*,*,#248,.F.);
#273=EDGE_LOOP('',(#272));
#274=FACE_BOUND('',#273,.T.);
#275=ADVANCED_FACE('',(#271,#274),#268,.F.);
#276=CARTESIAN_POINT('',(0.0,-0.135000000000000,0.092500000000000));
#277=DIRECTION('',(0.0,0.0,-1.0));
#278=DIRECTION('',(-1.0,0.0,0.0));
#279=AXIS2_PLACEMENT_3D('',#276,#277,#278);
#280=PLANE('',#279);
#281=CARTESIAN_POINT('',(0.0,-0.140000000000000,0.092500000000000));
#282=VERTEX_POINT('',#281);
#283=CARTESIAN_POINT('',(0.0,0.0,0.092500000000000));
#284=DIRECTION('',(0.0,0.0,-1.0));
#285=DIRECTION('',(-1.0,0.0,0.0));
#286=AXIS2_PLACEMENT_3D('',#283,#284,#285);
#287=CIRCLE('',#286,0.140000000000000);
#288=EDGE_CURVE('',#282,#282,#287,.T.);
#289=ORIENTED_EDGE('',*,*,#288,.F.);
#290=EDGE_LOOP('',(#289));
#291=FACE_OUTER_BOUND('',#290,.T.);
#292=ORIENTED_EDGE('',*,*,#259,.T.);
#293=EDGE_LOOP('',(#292));
#294=FACE_BOUND('',#293,.T.);
#295=ADVANCED_FACE('',(#291,#294),#280,.F.);
#296=CARTESIAN_POINT('',(0.0,0.0,0.0));
#297=DIRECTION('',(0.0,0.0,1.0));
#298=DIRECTION('',(-1.0,0.0,0.0));
#299=AXIS2_PLACEMENT_3D('',#296,#297,#298);
#300=CYLINDRICAL_SURFACE('',#299,0.140000000000000);
#301=CARTESIAN_POINT('',(0.0,-0.140000000000000,0.080000000000000));
#302=VERTEX_POINT('',#301);
#303=CARTESIAN_POINT('',(0.0,0.0,0.080000000000000));
#304=DIRECTION('',(0.0,0.0,1.0));
#305=DIRECTION('',(-1.0,0.0,0.0));
#306=AXIS2_PLACEMENT_3D('',#303,#304,#305);
#307=CIRCLE('',#306,0.140000000000000);
#308=EDGE_CURVE('',#302,#302,#307,.T.);
#309=ORIENTED_EDGE('',*,*,#308,.T.);
#310=EDGE_LOOP('',(#309));
#311=FACE_OUTER_BOUND('',#310,.T.);
#312=ORIENTED_EDGE('',*,*,#288,.T.);
#313=EDGE_LOOP('',(#312));
#314=FACE_BOUND('',#313,.T.);
#315=ADVANCED_FACE('',(#311,#314),#300,.T.);
#316=CARTESIAN_POINT('',(0.0,0.0,0.075000000000000));
#317=DIRECTION('',(0.0,0.0,-1.0));
#318=DIRECTION('',(0.0,-1.0,0.0));
#319=AXIS2_PLACEMENT_3D('',#316,#317,#318);
#320=CYLINDRICAL_SURFACE('',#319,0.130000000000000);
#321=CARTESIAN_POINT('',(0.0,-0.130000000000000,0.080000000000000));
#322=VERTEX_POINT('',#321);
#323=CARTESIAN_POINT('',(0.0,0.0,0.080000000000000));
#324=DIRECTION('',(0.0,0.0,-1.0));
#325=DIRECTION('',(0.0,-1.0,0.0));
#326=AXIS2_PLACEMENT_3D('',#323,#324,#325);
#327=CIRCLE('',#326,0.130000000000000);
#328=EDGE_CURVE('',#322,#322,#327,.T.);
#329=ORIENTED_EDGE('',*,*,#328,.T.);
#330=EDGE_LOOP('',(#329));
#331=FACE_OUTER_BOUND('',#330,.T.);
#332=CARTESIAN_POINT('',(0.0,-0.130000000000000,0.070000000000000));
#333=VERTEX_POINT('',#332);
#334=CARTESIAN_POINT('',(0.0,0.0,0.070000000000000));
#335=DIRECTION('',(0.0,0.0,-1.0));
#336=DIRECTION('',(0.0,-1.0,0.0));
#337=AXIS2_PLACEMENT_3D('',#334,#335,#336);
#338=CIRCLE('',#337,0.130000000000000);
#339=EDGE_CURVE('',#333,#333,#338,.T.);
#340=ORIENTED_EDGE('',*,*,#339,.F.);
#341=EDGE_LOOP('',(#340));
#342=FACE_BOUND('',#341,.T.);
#343=ADVANCED_FACE('',(#331,#342),#320,.T.);
#344=CARTESIAN_POINT('',(0.0,-0.135000000000000,0.080000000000000));
#345=DIRECTION('',(0.0,0.0,1.0));
#346=DIRECTION('',(1.0,0.0,0.0));
#347=AXIS2_PLACEMENT_3D('',#344,#345,#346);
#348=PLANE('',#347);
#349=ORIENTED_EDGE('',*,*,#308,.F.);
#350=EDGE_LOOP('',(#349));
#351=FACE_OUTER_BOUND('',#350,.T.);
#352=ORIENTED_EDGE('',*,*,#328,.F.);
#353=EDGE_LOOP('',(#352));
#354=FACE_BOUND('',#353,.T.);
#355=ADVANCED_FACE('',(#351,#354),#348,.F.);
#356=CARTESIAN_POINT('',(0.0,-0.135000000000000,0.070000000000000));
#357=DIRECTION('',(0.0,0.0,-1.0));
#358=DIRECTION('',(-1.0,0.0,0.0));
#359=AXIS2_PLACEMENT_3D('',#356,#357,#358);
#360=PLANE('',#359);
#361=CARTESIAN_POINT('',(0.0,-0.140000000000000,0.070000000000000));
#362=VERTEX_POINT('',#361);
#363=CARTESIAN_POINT('',(0.0,0.0,0.070000000000000));
#364=DIRECTION('',(0.0,0.0,-1.0));
#365=DIRECTION('',(-1.0,0.0,0.0));
#366=AXIS2_PLACEMENT_3D('',#363,#364,#365);
#367=CIRCLE('',#366,0.140000000000000);
#368=EDGE_CURVE('',#362,#362,#367,.T.);
#369=ORIENTED_EDGE('',*,*,#368,.F.);
#370=EDGE_LOOP('',(#369));
#371=FACE_OUTER_BOUND('',#370,.T.);
#372=ORIENTED_EDGE('',*,*,#339,.T.);
#373=EDGE_LOOP('',(#372));
#374=FACE_BOUND('',#373,.T.);
#375=ADVANCED_FACE('',(#371,#374),#360,.F.);
#376=CARTESIAN_POINT('',(0.0,0.0,0.0));
#377=DIRECTION('',(0.0,0.0,1.0));
#378=DIRECTION('',(-1.0,0.0,0.0));
#379=AXIS2_PLACEMENT_3D('',#376,#377,#378);
#380=CYLINDRICAL_SURFACE('',#379,0.140000000000000);
#381=CARTESIAN_POINT('',(0.0,-0.140000000000000,0.055000000000000));
#382=VERTEX_POINT('',#381);
#383=CARTESIAN_POINT('',(0.0,0.0,0.055000000000000));
#384=DIRECTION('',(0.0,0.0,1.0));
#385=DIRECTION('',(-1.0,0.0,0.0));
#386=AXIS2_PLACEMENT_3D('',#383,#384,#385);
#387=CIRCLE('',#386,0.140000000000000);
#388=EDGE_CURVE('',#382,#382,#387,.T.);
#389=ORIENTED_EDGE('',*,*,#388,.T.);
#390=EDGE_LOOP('',(#389));
#391=FACE_OUTER_BOUND('',#390,.T.);
#392=ORIENTED_EDGE('',*,*,#368,.T.);
#393=EDGE_LOOP('',(#392));
#394=FACE_BOUND('',#393,.T.);
#395=ADVANCED_FACE('',(#391,#394),#380,.T.);
#396=CARTESIAN_POINT('',(0.0,0.0,0.040000000000000));
#397=DIRECTION('',(0.0,0.0,-1.0));
#398=DIRECTION('',(0.0,-1.0,0.0));
#399=AXIS2_PLACEMENT_3D('',#396,#397,#398);
#400=CYLINDRICAL_SURFACE('',#399,0.120000000000000);
#401=CARTESIAN_POINT('',(0.0,-0.120000000000000,0.055000000000000));
#402=VERTEX_POINT('',#401);
#403=CARTESIAN_POINT('',(0.0,0.0,0.055000000000000));
#404=DIRECTION('',(0.0,0.0,-1.0));
#405=DIRECTION('',(0.0,-1.0,0.0));
#406=AXIS2_PLACEMENT_3D('',#403,#404,#405);
#407=CIRCLE('',#406,0.120000000000000);
#408=EDGE_CURVE('',#402,#402,#407,.T.);
#409=ORIENTED_EDGE('',*,*,#408,.T.);
#410=EDGE_LOOP('',(#409));
#411=FACE_OUTER_BOUND('',#410,.T.);
#412=CARTESIAN_POINT('',(0.0,-0.120000000000000,0.025000000000000));
#413=VERTEX_POINT('',#412);
#414=CARTESIAN_POINT('',(0.0,0.0,0.025000000000000));
#415=DIRECTION('',(0.0,0.0,-1.0));
#416=DIRECTION('',(0.0,-1.0,0.0));
#417=AXIS2_PLACEMENT_3D('',#414,#415,#416);
#418=CIRCLE('',#417,0.120000000000000);
#419=EDGE_CURVE('',#413,#413,#418,.T.);
#420=ORIENTED_EDGE('',*,*,#419,.F.);
#421=EDGE_LOOP('',(#420));
#422=FACE_BOUND('',#421,.T.);
#423=ADVANCED_FACE('',(#411,#422),#400,.T.);
#424=CARTESIAN_POINT('',(0.0,-0.130000000000000,0.055000000000000));
#425=DIRECTION('',(0.0,0.0,1.0));
#426=DIRECTION('',(1.0,0.0,0.0));
#427=AXIS2_PLACEMENT_3D('',#424,#425,#426);
#428=PLANE('',#427);
#429=ORIENTED_EDGE('',*,*,#388,.F.);
#430=EDGE_LOOP('',(#429));
#431=FACE_OUTER_BOUND('',#430,.T.);
#432=ORIENTED_EDGE('',*,*,#408,.F.);
#433=EDGE_LOOP('',(#432));
#434=FACE_BOUND('',#433,.T.);
#435=ADVANCED_FACE('',(#431,#434),#428,.F.);
#436=CARTESIAN_POINT('',(1.158966E-017,5.463696E-018,0.025000000000000));
#437=DIRECTION('',(0.0,0.0,1.0));
#438=DIRECTION('',(1.0,0.0,0.0));
#439=AXIS2_PLACEMENT_3D('',#436,#437,#438);
#440=PLANE('',#439);
#441=CARTESIAN_POINT('',(-0.090066641993582,0.156000000000000,0.025000000000000));
#442=VERTEX_POINT('',#441);
#443=CARTESIAN_POINT('',(0.090066641993582,0.156000000000000,0.025000000000000));
#444=VERTEX_POINT('',#443);
#445=CARTESIAN_POINT('',(-0.090066641993582,0.156000000000000,0.025000000000000));
#446=DIRECTION('',(1.0,0.0,0.0));
#447=VECTOR('',#446,0.180133283987163);
#448=LINE('',#445,#447);
#449=EDGE_CURVE('',#442,#444,#448,.T.);
#450=ORIENTED_EDGE('',*,*,#449,.F.);
#451=CARTESIAN_POINT('',(-0.180133283987163,-8.326379E-017,0.025000000000000));
#452=VERTEX_POINT('',#451);
#453=CARTESIAN_POINT('',(-0.180133283987163,-1.110223E-016,0.025000000000000));
#454=DIRECTION('',(0.500000000000000,0.866025403784439,0.0));
#455=VECTOR('',#454,0.180133283987163);
#456=LINE('',#453,#455);
#457=EDGE_CURVE('',#452,#442,#456,.T.);
#458=ORIENTED_EDGE('',*,*,#457,.F.);
#459=CARTESIAN_POINT('',(-0.090066641993582,-0.156000000000000,0.025000000000000));
#460=VERTEX_POINT('',#459);
#461=CARTESIAN_POINT('',(-0.090066641993582,-0.156000000000000,0.025000000000000));
#462=DIRECTION('',(-0.500000000000000,0.866025403784438,0.0));
#463=VECTOR('',#462,0.180133283987163);
#464=LINE('',#461,#463);
#465=EDGE_CURVE('',#460,#452,#464,.T.);
#466=ORIENTED_EDGE('',*,*,#465,.F.);
#467=CARTESIAN_POINT('',(0.090066641993582,-0.156000000000000,0.025000000000000));
#468=VERTEX_POINT('',#467);
#469=CARTESIAN_POINT('',(0.090066641993582,-0.156000000000000,0.025000000000000));
#470=DIRECTION('',(-1.0,0.0,0.0));
#471=VECTOR('',#470,0.180133283987163);
#472=LINE('',#469,#471);
#473=EDGE_CURVE('',#468,#460,#472,.T.);
#474=ORIENTED_EDGE('',*,*,#473,.F.);
#475=CARTESIAN_POINT('',(0.180133283987163,5.048162E-017,0.025000000000000));
#476=VERTEX_POINT('',#475);
#477=CARTESIAN_POINT('',(0.180133283987163,8.326673E-017,0.025000000000000));
#478=DIRECTION('',(-0.500000000000000,-0.866025403784439,0.0));
#479=VECTOR('',#478,0.180133283987163);
#480=LINE('',#477,#479);
#481=EDGE_CURVE('',#476,#468,#480,.T.);
#482=ORIENTED_EDGE('',*,*,#481,.F.);
#483=CARTESIAN_POINT('',(0.090066641993582,0.156000000000000,0.025000000000000));
#484=DIRECTION('',(0.500000000000000,-0.866025403784439,0.0));
#485=VECTOR('',#484,0.180133283987163);
#486=LINE('',#483,#485);
#487=EDGE_CURVE('',#444,#476,#486,.T.);
#488=ORIENTED_EDGE('',*,*,#487,.F.);
#489=EDGE_LOOP('',(#450,#458,#466,#474,#482,#488));
#490=FACE_OUTER_BOUND('',#489,.T.);
#491=ORIENTED_EDGE('',*,*,#419,.T.);
#492=EDGE_LOOP('',(#491));
#493=FACE_BOUND('',#492,.T.);
#494=ADVANCED_FACE('',(#490,#493),#440,.T.);
#495=CARTESIAN_POINT('',(-0.090066641993582,0.156000000000000,0.0));
#496=DIRECTION('',(0.0,1.0,0.0));
#497=DIRECTION('',(0.0,0.0,1.0));
#498=AXIS2_PLACEMENT_3D('',#495,#496,#497);
#499=PLANE('',#498);
#500=ORIENTED_EDGE('',*,*,#449,.T.);
#501=CARTESIAN_POINT('',(0.090066641993582,0.156000000000000,0.0));
#502=VERTEX_POINT('',#501);
#503=CARTESIAN_POINT('',(0.090066641993582,0.156000000000000,0.0));
#504=DIRECTION('',(0.0,0.0,1.0));
#505=VECTOR('',#504,0.025000000000000);
#506=LINE('',#503,#505);
#507=EDGE_CURVE('',#502,#444,#506,.T.);
#508=ORIENTED_EDGE('',*,*,#507,.F.);
#509=CARTESIAN_POINT('',(-0.090066641993582,0.156000000000000,0.0));
#510=VERTEX_POINT('',#509);
#511=CARTESIAN_POINT('',(0.090066641993582,0.156000000000000,0.0));
#512=DIRECTION('',(-1.0,0.0,0.0));
#513=VECTOR('',#512,0.180133283987163);
#514=LINE('',#511,#513);
#515=EDGE_CURVE('',#502,#510,#514,.T.);
#516=ORIENTED_EDGE('',*,*,#515,.T.);
#517=CARTESIAN_POINT('',(-0.090066641993582,0.156000000000000,0.0));
#518=DIRECTION('',(0.0,0.0,1.0));
#519=VECTOR('',#518,0.025000000000000);
#520=LINE('',#517,#519);
#521=EDGE_CURVE('',#510,#442,#520,.T.);
#522=ORIENTED_EDGE('',*,*,#521,.T.);
#523=EDGE_LOOP('',(#500,#508,#516,#522));
#524=FACE_OUTER_BOUND('',#523,.T.);
#525=ADVANCED_FACE('',(#524),#499,.T.);
#526=CARTESIAN_POINT('',(0.090066641993582,0.156000000000000,0.0));
#527=DIRECTION('',(0.866025403784439,0.500000000000000,0.0));
#528=DIRECTION('',(0.0,0.0,-1.0));
#529=AXIS2_PLACEMENT_3D('',#526,#527,#528);
#530=PLANE('',#529);
#531=ORIENTED_EDGE('',*,*,#487,.T.);
#532=CARTESIAN_POINT('',(0.180133283987163,5.048162E-017,0.0));
#533=VERTEX_POINT('',#532);
#534=CARTESIAN_POINT('',(0.180133283987163,5.048162E-017,0.0));
#535=DIRECTION('',(0.0,0.0,1.0));
#536=VECTOR('',#535,0.025000000000000);
#537=LINE('',#534,#536);
#538=EDGE_CURVE('',#533,#476,#537,.T.);
#539=ORIENTED_EDGE('',*,*,#538,.F.);
#540=CARTESIAN_POINT('',(0.180133283987163,5.048162E-017,0.0));
#541=DIRECTION('',(-0.500000000000000,0.866025403784439,0.0));
#542=VECTOR('',#541,0.180133283987163);
#543=LINE('',#540,#542);
#544=EDGE_CURVE('',#533,#502,#543,.T.);
#545=ORIENTED_EDGE('',*,*,#544,.T.);
#546=ORIENTED_EDGE('',*,*,#507,.T.);
#547=EDGE_LOOP('',(#531,#539,#545,#546));
#548=FACE_OUTER_BOUND('',#547,.T.);
#549=ADVANCED_FACE('',(#548),#530,.T.);
#550=CARTESIAN_POINT('',(0.180133283987163,5.048162E-017,0.0));
#551=DIRECTION('',(0.866025403784439,-0.500000000000000,0.0));
#552=DIRECTION('',(0.0,0.0,-1.0));
#553=AXIS2_PLACEMENT_3D('',#550,#551,#552);
#554=PLANE('',#553);
#555=ORIENTED_EDGE('',*,*,#481,.T.);
#556=CARTESIAN_POINT('',(0.090066641993582,-0.156000000000000,0.0));
#557=VERTEX_POINT('',#556);
#558=CARTESIAN_POINT('',(0.090066641993582,-0.156000000000000,0.0));
#559=DIRECTION('',(0.0,0.0,1.0));
#560=VECTOR('',#559,0.025000000000000);
#561=LINE('',#558,#560);
#562=EDGE_CURVE('',#557,#468,#561,.T.);
#563=ORIENTED_EDGE('',*,*,#562,.F.);
#564=CARTESIAN_POINT('',(0.090066641993582,-0.156000000000000,0.0));
#565=DIRECTION('',(0.500000000000000,0.866025403784439,0.0));
#566=VECTOR('',#565,0.180133283987163);
#567=LINE('',#564,#566);
#568=EDGE_CURVE('',#557,#533,#567,.T.);
#569=ORIENTED_EDGE('',*,*,#568,.T.);
#570=ORIENTED_EDGE('',*,*,#538,.T.);
#571=EDGE_LOOP('',(#555,#563,#569,#570));
#572=FACE_OUTER_BOUND('',#571,.T.);
#573=ADVANCED_FACE('',(#572),#554,.T.);
#574=CARTESIAN_POINT('',(0.090066641993582,-0.156000000000000,0.0));
#575=DIRECTION('',(0.0,-1.0,0.0));
#576=DIRECTION('',(0.0,0.0,-1.0));
#577=AXIS2_PLACEMENT_3D('',#574,#575,#576);
#578=PLANE('',#577);
#579=ORIENTED_EDGE('',*,*,#473,.T.);
#580=CARTESIAN_POINT('',(-0.090066641993582,-0.156000000000000,0.0));
#581=VERTEX_POINT('',#580);
#582=CARTESIAN_POINT('',(-0.090066641993582,-0.156000000000000,0.0));
#583=DIRECTION('',(0.0,0.0,1.0));
#584=VECTOR('',#583,0.025000000000000);
#585=LINE('',#582,#584);
#586=EDGE_CURVE('',#581,#460,#585,.T.);
#587=ORIENTED_EDGE('',*,*,#586,.F.);
#588=CARTESIAN_POINT('',(-0.090066641993582,-0.156000000000000,0.0));
#589=DIRECTION('',(1.0,0.0,0.0));
#590=VECTOR('',#589,0.180133283987163);
#591=LINE('',#588,#590);
#592=EDGE_CURVE('',#581,#557,#591,.T.);
#593=ORIENTED_EDGE('',*,*,#592,.T.);
#594=ORIENTED_EDGE('',*,*,#562,.T.);
#595=EDGE_LOOP('',(#579,#587,#593,#594));
#596=FACE_OUTER_BOUND('',#595,.T.);
#597=ADVANCED_FACE('',(#596),#578,.T.);
#598=CARTESIAN_POINT('',(-0.090066641993582,-0.156000000000000,0.0));
#599=DIRECTION('',(-0.866025403784438,-0.500000000000000,0.0));
#600=DIRECTION('',(0.0,0.0,1.0));
#601=AXIS2_PLACEMENT_3D('',#598,#599,#600);
#602=PLANE('',#601);
#603=ORIENTED_EDGE('',*,*,#465,.T.);
#604=CARTESIAN_POINT('',(-0.180133283987163,-8.326379E-017,0.0));
#605=VERTEX_POINT('',#604);
#606=CARTESIAN_POINT('',(-0.180133283987163,-8.326379E-017,0.0));
#607=DIRECTION('',(0.0,0.0,1.0));
#608=VECTOR('',#607,0.025000000000000);
#609=LINE('',#606,#608);
#610=EDGE_CURVE('',#605,#452,#609,.T.);
#611=ORIENTED_EDGE('',*,*,#610,.F.);
#612=CARTESIAN_POINT('',(-0.180133283987163,-8.326379E-017,0.0));
#613=DIRECTION('',(0.500000000000000,-0.866025403784438,0.0));
#614=VECTOR('',#613,0.180133283987163);
#615=LINE('',#612,#614);
#616=EDGE_CURVE('',#605,#581,#615,.T.);
#617=ORIENTED_EDGE('',*,*,#616,.T.);
#618=ORIENTED_EDGE('',*,*,#586,.T.);
#619=EDGE_LOOP('',(#603,#611,#617,#618));
#620=FACE_OUTER_BOUND('',#619,.T.);
#621=ADVANCED_FACE('',(#620),#602,.T.);
#622=CARTESIAN_POINT('',(-0.180133283987163,-8.326379E-017,0.0));
#623=DIRECTION('',(-0.866025403784439,0.500000000000000,0.0));
#624=DIRECTION('',(0.0,0.0,1.0));
#625=AXIS2_PLACEMENT_3D('',#622,#623,#624);
#626=PLANE('',#625);
#627=ORIENTED_EDGE('',*,*,#457,.T.);
#628=ORIENTED_EDGE('',*,*,#521,.F.);
#629=CARTESIAN_POINT('',(-0.090066641993582,0.156000000000000,0.0));
#630=DIRECTION('',(-0.500000000000000,-0.866025403784439,0.0));
#631=VECTOR('',#630,0.180133283987163);
#632=LINE('',#629,#631);
#633=EDGE_CURVE('',#510,#605,#632,.T.);
#634=ORIENTED_EDGE('',*,*,#633,.T.);
#635=ORIENTED_EDGE('',*,*,#610,.T.);
#636=EDGE_LOOP('',(#627,#628,#634,#635));
#637=FACE_OUTER_BOUND('',#636,.T.);
#638=ADVANCED_FACE('',(#637),#626,.T.);
#639=CARTESIAN_POINT('',(0.0,0.0,0.0));
#640=DIRECTION('',(0.0,0.0,-1.0));
#641=DIRECTION('',(-1.0,0.0,0.0));
#642=AXIS2_PLACEMENT_3D('',#639,#640,#641);
#643=PLANE('',#642);
#644=ORIENTED_EDGE('',*,*,#633,.F.);
#645=ORIENTED_EDGE('',*,*,#515,.F.);
#646=ORIENTED_EDGE('',*,*,#544,.F.);
#647=ORIENTED_EDGE('',*,*,#568,.F.);
#648=ORIENTED_EDGE('',*,*,#592,.F.);
#649=ORIENTED_EDGE('',*,*,#616,.F.);
#650=EDGE_LOOP('',(#644,#645,#646,#647,#648,#649));
#651=FACE_OUTER_BOUND('',#650,.T.);
#652=ADVANCED_FACE('',(#651),#643,.T.);
#653=CLOSED_SHELL('',(#146,#166,#186,#206,#226,#235,#263,#275,#295,#315,#343,#355,#375,#395,#423,#435,#494,#525,#549,#573,#597,#621,#638,#652));
#654=MANIFOLD_SOLID_BREP('Solid1',#653);
#655=DRAUGHTING_PRE_DEFINED_COLOUR('white');
#656=FILL_AREA_STYLE_COLOUR('Chrome',#655);
#657=FILL_AREA_STYLE('Chrome',(#656));
#658=SURFACE_STYLE_FILL_AREA(#657);
#659=SURFACE_SIDE_STYLE('Chrome',(#658));
#660=SURFACE_STYLE_USAGE(.BOTH.,#659);
#661=PRESENTATION_STYLE_ASSIGNMENT((#660));
#662=STYLED_ITEM('',(#661),#654);
#663=MECHANICAL_DESIGN_GEOMETRIC_PRESENTATION_REPRESENTATION('',(#662),#42);
#664=ADVANCED_BREP_SHAPE_REPRESENTATION('ABSR',(#654),#87);
#665=SHAPE_REPRESENTATION_RELATIONSHIP('SRR','None',#664,#92);
#666=AXIS2_PLACEMENT_3D('',#667,#668,#669);
#667=CARTESIAN_POINT('',(0.0,0.0,0.0));
#668=DIRECTION('',(0.0,0.0,1.0));
#669=DIRECTION('',(1.0,0.0,0.0));
#670=NEXT_ASSEMBLY_USAGE_OCCURRENCE('BSO-832-16 PEM BLIND STANDOFF:1','BSO-832-16 PEM BLIND STANDOFF:1','BSO-832-16 PEM BLIND STANDOFF:1',#12,#57,'BSO-832-16 PEM BLIND STANDOFF:1');
#671=PRODUCT_DEFINITION_SHAPE('BSO-832-16 PEM BLIND STANDOFF:1','BSO-832-16 PEM BLIND STANDOFF:1',#670);
#672=ITEM_DEFINED_TRANSFORMATION('BSO-832-16 PEM BLIND STANDOFF:1','BSO-832-16 PEM BLIND STANDOFF:1',#88,#666);
#676=(REPRESENTATION_RELATIONSHIP('BSO-832-16 PEM BLIND STANDOFF:1','BSO-832-16 PEM BLIND STANDOFF:1',#92,#47)REPRESENTATION_RELATIONSHIP_WITH_TRANSFORMATION(#672)SHAPE_REPRESENTATION_RELATIONSHIP());
#677=CONTEXT_DEPENDENT_SHAPE_REPRESENTATION(#676,#671);
ENDSEC;
END-ISO-10303-21;
