ISO-10303-21;
HEADER;
/****************************************************************
 * Generated by software with PDE/Lib inside                    *
 * PDElib Version v51a, created Thu 01/14/2010                  *
 * ITI Transcendata (http://www.transcendata.com/)              *
 ****************************************************************/
FILE_DESCRIPTION((''),'2;1');
FILE_NAME('S:\\Engineering\\Public\\Projects\\FlatPack 2\\FP2 19in 600 15 INCH DEEP\\Workspace\\111junk\\STANDOFFS\\THROUGH\\METRIC\\SO-M3-6-ZI.stp','2012-07-02T09:36:52',('stlaus'),(''),'Autodesk Inventor 2011','Autodesk Inventor 2011','');
FILE_SCHEMA(('AUTOMOTIVE_DESIGN { 1 0 10303 214 1 1 1 1 }'));
ENDSEC;
DATA;
#5=APPLICATION_CONTEXT('automotive design');
#6=APPLICATION_PROTOCOL_DEFINITION('International Standard','automotive_design',2001,#5);
#7=PRODUCT_CONTEXT('',#5,'mechanical');
#8=PRODUCT('Assembly1','Assembly1',$,(#7));
#9=PRODUCT_RELATED_PRODUCT_CATEGORY('part',$,(#8));
#10=PRODUCT_DEFINITION_FORMATION('',$,#8);
#11=PRODUCT_DEFINITION_CONTEXT('part definition',#5,'design');
#12=PRODUCT_DEFINITION('',$,#10,#11);
#18=(NAMED_UNIT(*)PLANE_ANGLE_UNIT()SI_UNIT($,.RADIAN.));
#19=DIMENSIONAL_EXPONENTS(0.0,0.0,0.0,0.0,0.0,0.0,0.0);
#20=PLANE_ANGLE_MEASURE_WITH_UNIT(PLANE_ANGLE_MEASURE(0.017453292500000),#18);
#24=(CONVERSION_BASED_UNIT('DEGREE',#20)NAMED_UNIT(#19)PLANE_ANGLE_UNIT());
#28=(NAMED_UNIT(*)SI_UNIT($,.STERADIAN.)SOLID_ANGLE_UNIT());
#32=(LENGTH_UNIT()NAMED_UNIT(*)SI_UNIT(.CENTI.,.METRE.));
#33=DIMENSIONAL_EXPONENTS(1.0,0.0,0.0,0.0,0.0,0.0,0.0);
#34=LENGTH_MEASURE_WITH_UNIT(LENGTH_MEASURE(2.540000000000000),#32);
#38=(CONVERSION_BASED_UNIT('INCH',#34)LENGTH_UNIT()NAMED_UNIT(#33));
#40=UNCERTAINTY_MEASURE_WITH_UNIT(LENGTH_MEASURE(0.000393700787402),#38,'DISTANCE_ACCURACY_VALUE','');
#42=(GEOMETRIC_REPRESENTATION_CONTEXT(3)GLOBAL_UNCERTAINTY_ASSIGNED_CONTEXT((#40))GLOBAL_UNIT_ASSIGNED_CONTEXT((#24,#28,#38))REPRESENTATION_CONTEXT('None','None'));
#43=AXIS2_PLACEMENT_3D('',#44,#45,#46);
#44=CARTESIAN_POINT('',(0.0,0.0,0.0));
#45=DIRECTION('',(0.0,0.0,1.0));
#46=DIRECTION('',(1.0,0.0,0.0));
#47=SHAPE_REPRESENTATION('',(#43,#654),#42);
#48=PRODUCT_DEFINITION_SHAPE('','',#12);
#49=SHAPE_DEFINITION_REPRESENTATION(#48,#47);
#50=APPLICATION_CONTEXT('automotive design');
#51=APPLICATION_PROTOCOL_DEFINITION('International Standard','automotive_design',2001,#50);
#52=PRODUCT_CONTEXT('',#50,'mechanical');
#53=PRODUCT('SO-M3-6 PEM THRU THD STANDOFF','SO-M3-6 PEM THRU THD STANDOFF',$,(#52));
#54=PRODUCT_RELATED_PRODUCT_CATEGORY('part',$,(#53));
#55=PRODUCT_DEFINITION_FORMATION('',$,#53);
#56=PRODUCT_DEFINITION_CONTEXT('part definition',#50,'design');
#57=PRODUCT_DEFINITION('',$,#55,#56);
#63=(NAMED_UNIT(*)PLANE_ANGLE_UNIT()SI_UNIT($,.RADIAN.));
#64=DIMENSIONAL_EXPONENTS(0.0,0.0,0.0,0.0,0.0,0.0,0.0);
#65=PLANE_ANGLE_MEASURE_WITH_UNIT(PLANE_ANGLE_MEASURE(0.017453292500000),#63);
#69=(CONVERSION_BASED_UNIT('DEGREE',#65)NAMED_UNIT(#64)PLANE_ANGLE_UNIT());
#73=(NAMED_UNIT(*)SI_UNIT($,.STERADIAN.)SOLID_ANGLE_UNIT());
#77=(LENGTH_UNIT()NAMED_UNIT(*)SI_UNIT(.MILLI.,.METRE.));
#79=UNCERTAINTY_MEASURE_WITH_UNIT(LENGTH_MEASURE(0.010000000000000),#77,'DISTANCE_ACCURACY_VALUE','');
#81=(GEOMETRIC_REPRESENTATION_CONTEXT(3)GLOBAL_UNCERTAINTY_ASSIGNED_CONTEXT((#79))GLOBAL_UNIT_ASSIGNED_CONTEXT((#69,#73,#77))REPRESENTATION_CONTEXT('None','None'));
#82=AXIS2_PLACEMENT_3D('',#83,#84,#85);
#83=CARTESIAN_POINT('',(0.0,0.0,0.0));
#84=DIRECTION('',(0.0,0.0,1.0));
#85=DIRECTION('',(1.0,0.0,0.0));
#86=SHAPE_REPRESENTATION('',(#82),#81);
#87=PRODUCT_DEFINITION_SHAPE('','',#57);
#88=SHAPE_DEFINITION_REPRESENTATION(#87,#86);
#94=(NAMED_UNIT(*)PLANE_ANGLE_UNIT()SI_UNIT($,.RADIAN.));
#95=DIMENSIONAL_EXPONENTS(0.0,0.0,0.0,0.0,0.0,0.0,0.0);
#96=PLANE_ANGLE_MEASURE_WITH_UNIT(PLANE_ANGLE_MEASURE(0.017453292500000),#94);
#100=(CONVERSION_BASED_UNIT('DEGREE',#96)NAMED_UNIT(#95)PLANE_ANGLE_UNIT());
#104=(NAMED_UNIT(*)SI_UNIT($,.STERADIAN.)SOLID_ANGLE_UNIT());
#108=(LENGTH_UNIT()NAMED_UNIT(*)SI_UNIT(.MILLI.,.METRE.));
#110=UNCERTAINTY_MEASURE_WITH_UNIT(LENGTH_MEASURE(0.000001000000000),#108,'DISTANCE_ACCURACY_VALUE','');
#112=(GEOMETRIC_REPRESENTATION_CONTEXT(3)GLOBAL_UNCERTAINTY_ASSIGNED_CONTEXT((#110))GLOBAL_UNIT_ASSIGNED_CONTEXT((#100,#104,#108))REPRESENTATION_CONTEXT('','3D'));
#113=CARTESIAN_POINT('',(0.0,0.0,5.900000000000000));
#114=DIRECTION('',(0.0,0.0,1.0));
#115=DIRECTION('',(-1.0,0.0,0.0));
#116=AXIS2_PLACEMENT_3D('',#113,#114,#115);
#117=CONICAL_SURFACE('',#116,1.600000000000000,45.000000000000007);
#118=CARTESIAN_POINT('',(1.500000000000000,-1.836910E-016,5.800000000000001));
#119=VERTEX_POINT('',#118);
#120=CARTESIAN_POINT('',(0.0,0.0,5.800000000000001));
#121=DIRECTION('',(0.0,0.0,-1.0));
#122=DIRECTION('',(-1.0,0.0,0.0));
#123=AXIS2_PLACEMENT_3D('',#120,#121,#122);
#124=CIRCLE('',#123,1.500000000000000);
#125=EDGE_CURVE('',#119,#119,#124,.T.);
#126=ORIENTED_EDGE('',*,*,#125,.T.);
#127=EDGE_LOOP('',(#126));
#128=FACE_OUTER_BOUND('',#127,.T.);
#129=CARTESIAN_POINT('',(1.700000000000000,2.081831E-016,6.000000000000001));
#130=VERTEX_POINT('',#129);
#131=CARTESIAN_POINT('',(0.0,0.0,6.000000000000001));
#132=DIRECTION('',(0.0,0.0,1.0));
#133=DIRECTION('',(-1.0,0.0,0.0));
#134=AXIS2_PLACEMENT_3D('',#131,#132,#133);
#135=CIRCLE('',#134,1.700000000000000);
#136=EDGE_CURVE('',#130,#130,#135,.T.);
#137=ORIENTED_EDGE('',*,*,#136,.T.);
#138=EDGE_LOOP('',(#137));
#139=FACE_BOUND('',#138,.T.);
#140=ADVANCED_FACE('',(#128,#139),#117,.F.);
#141=CARTESIAN_POINT('',(0.0,0.0,6.000000000000001));
#142=DIRECTION('',(0.0,0.0,-1.0));
#143=DIRECTION('',(-1.0,0.0,0.0));
#144=AXIS2_PLACEMENT_3D('',#141,#142,#143);
#145=PLANE('',#144);
#146=CARTESIAN_POINT('',(2.020000000000000,-2.473705E-016,6.000000000000001));
#147=VERTEX_POINT('',#146);
#148=CARTESIAN_POINT('',(0.0,0.0,6.000000000000001));
#149=DIRECTION('',(0.0,0.0,-1.0));
#150=DIRECTION('',(-1.0,0.0,0.0));
#151=AXIS2_PLACEMENT_3D('',#148,#149,#150);
#152=CIRCLE('',#151,2.020000000000000);
#153=EDGE_CURVE('',#147,#147,#152,.T.);
#154=ORIENTED_EDGE('',*,*,#153,.F.);
#155=EDGE_LOOP('',(#154));
#156=FACE_OUTER_BOUND('',#155,.T.);
#157=ORIENTED_EDGE('',*,*,#136,.F.);
#158=EDGE_LOOP('',(#157));
#159=FACE_BOUND('',#158,.T.);
#160=ADVANCED_FACE('',(#156,#159),#145,.F.);
#161=CARTESIAN_POINT('',(0.0,0.0,-3.474175425861609));
#162=DIRECTION('',(0.0,0.0,1.0));
#163=DIRECTION('',(1.0,0.0,0.0));
#164=AXIS2_PLACEMENT_3D('',#161,#162,#163);
#165=CYLINDRICAL_SURFACE('',#164,1.500000000000000);
#166=CARTESIAN_POINT('',(-1.500000000000000,-1.836910E-016,0.0));
#167=VERTEX_POINT('',#166);
#168=CARTESIAN_POINT('',(0.0,0.0,0.0));
#169=DIRECTION('',(0.0,0.0,1.0));
#170=DIRECTION('',(1.0,0.0,0.0));
#171=AXIS2_PLACEMENT_3D('',#168,#169,#170);
#172=CIRCLE('',#171,1.500000000000000);
#173=EDGE_CURVE('',#167,#167,#172,.T.);
#174=ORIENTED_EDGE('',*,*,#173,.F.);
#175=EDGE_LOOP('',(#174));
#176=FACE_OUTER_BOUND('',#175,.T.);
#177=ORIENTED_EDGE('',*,*,#125,.F.);
#178=EDGE_LOOP('',(#177));
#179=FACE_BOUND('',#178,.T.);
#180=ADVANCED_FACE('',(#176,#179),#165,.F.);
#181=CARTESIAN_POINT('',(0.0,0.0,5.960000000000001));
#182=DIRECTION('',(0.0,0.0,-1.0));
#183=DIRECTION('',(-1.0,0.0,0.0));
#184=AXIS2_PLACEMENT_3D('',#181,#182,#183);
#185=CONICAL_SURFACE('',#184,2.060000000000000,44.999999999999993);
#186=ORIENTED_EDGE('',*,*,#153,.T.);
#187=EDGE_LOOP('',(#186));
#188=FACE_OUTER_BOUND('',#187,.T.);
#189=CARTESIAN_POINT('',(2.100000000000000,2.571673E-016,5.920000000000001));
#190=VERTEX_POINT('',#189);
#191=CARTESIAN_POINT('',(0.0,0.0,5.920000000000001));
#192=DIRECTION('',(0.0,0.0,1.0));
#193=DIRECTION('',(-1.0,0.0,0.0));
#194=AXIS2_PLACEMENT_3D('',#191,#192,#193);
#195=CIRCLE('',#194,2.100000000000000);
#196=EDGE_CURVE('',#190,#190,#195,.T.);
#197=ORIENTED_EDGE('',*,*,#196,.T.);
#198=EDGE_LOOP('',(#197));
#199=FACE_BOUND('',#198,.T.);
#200=ADVANCED_FACE('',(#188,#199),#185,.T.);
#201=CARTESIAN_POINT('',(0.0,0.0,0.0));
#202=DIRECTION('',(0.0,0.0,1.0));
#203=DIRECTION('',(-1.0,0.0,0.0));
#204=AXIS2_PLACEMENT_3D('',#201,#202,#203);
#205=CYLINDRICAL_SURFACE('',#204,2.100000000000000);
#206=CARTESIAN_POINT('',(0.0,-2.100000000000000,2.603500000000000));
#207=VERTEX_POINT('',#206);
#208=CARTESIAN_POINT('',(0.0,0.0,2.603500000000000));
#209=DIRECTION('',(0.0,0.0,1.0));
#210=DIRECTION('',(-1.0,0.0,0.0));
#211=AXIS2_PLACEMENT_3D('',#208,#209,#210);
#212=CIRCLE('',#211,2.100000000000000);
#213=EDGE_CURVE('',#207,#207,#212,.T.);
#214=ORIENTED_EDGE('',*,*,#213,.T.);
#215=EDGE_LOOP('',(#214));
#216=FACE_OUTER_BOUND('',#215,.T.);
#217=ORIENTED_EDGE('',*,*,#196,.F.);
#218=EDGE_LOOP('',(#217));
#219=FACE_BOUND('',#218,.T.);
#220=ADVANCED_FACE('',(#216,#219),#205,.T.);
#221=CARTESIAN_POINT('',(0.0,0.0,2.476500000000000));
#222=DIRECTION('',(0.0,0.0,-1.0));
#223=DIRECTION('',(0.0,-1.0,0.0));
#224=AXIS2_PLACEMENT_3D('',#221,#222,#223);
#225=CYLINDRICAL_SURFACE('',#224,1.846000000000000);
#226=CARTESIAN_POINT('',(0.0,-1.846000000000000,2.603500000000000));
#227=VERTEX_POINT('',#226);
#228=CARTESIAN_POINT('',(0.0,0.0,2.603500000000000));
#229=DIRECTION('',(0.0,0.0,-1.0));
#230=DIRECTION('',(0.0,-1.0,0.0));
#231=AXIS2_PLACEMENT_3D('',#228,#229,#230);
#232=CIRCLE('',#231,1.846000000000000);
#233=EDGE_CURVE('',#227,#227,#232,.T.);
#234=ORIENTED_EDGE('',*,*,#233,.T.);
#235=EDGE_LOOP('',(#234));
#236=FACE_OUTER_BOUND('',#235,.T.);
#237=CARTESIAN_POINT('',(0.0,-1.846000000000000,2.349500000000000));
#238=VERTEX_POINT('',#237);
#239=CARTESIAN_POINT('',(0.0,0.0,2.349500000000000));
#240=DIRECTION('',(0.0,0.0,-1.0));
#241=DIRECTION('',(0.0,-1.0,0.0));
#242=AXIS2_PLACEMENT_3D('',#239,#240,#241);
#243=CIRCLE('',#242,1.846000000000000);
#244=EDGE_CURVE('',#238,#238,#243,.T.);
#245=ORIENTED_EDGE('',*,*,#244,.F.);
#246=EDGE_LOOP('',(#245));
#247=FACE_BOUND('',#246,.T.);
#248=ADVANCED_FACE('',(#236,#247),#225,.T.);
#249=CARTESIAN_POINT('',(0.0,-1.973000000000000,2.603500000000000));
#250=DIRECTION('',(0.0,0.0,1.0));
#251=DIRECTION('',(1.0,0.0,0.0));
#252=AXIS2_PLACEMENT_3D('',#249,#250,#251);
#253=PLANE('',#252);
#254=ORIENTED_EDGE('',*,*,#213,.F.);
#255=EDGE_LOOP('',(#254));
#256=FACE_OUTER_BOUND('',#255,.T.);
#257=ORIENTED_EDGE('',*,*,#233,.F.);
#258=EDGE_LOOP('',(#257));
#259=FACE_BOUND('',#258,.T.);
#260=ADVANCED_FACE('',(#256,#259),#253,.F.);
#261=CARTESIAN_POINT('',(0.0,-1.973000000000000,2.349500000000000));
#262=DIRECTION('',(0.0,0.0,-1.0));
#263=DIRECTION('',(-1.0,0.0,0.0));
#264=AXIS2_PLACEMENT_3D('',#261,#262,#263);
#265=PLANE('',#264);
#266=CARTESIAN_POINT('',(0.0,-2.100000000000000,2.349500000000000));
#267=VERTEX_POINT('',#266);
#268=CARTESIAN_POINT('',(0.0,0.0,2.349500000000000));
#269=DIRECTION('',(0.0,0.0,-1.0));
#270=DIRECTION('',(-1.0,0.0,0.0));
#271=AXIS2_PLACEMENT_3D('',#268,#269,#270);
#272=CIRCLE('',#271,2.100000000000000);
#273=EDGE_CURVE('',#267,#267,#272,.T.);
#274=ORIENTED_EDGE('',*,*,#273,.F.);
#275=EDGE_LOOP('',(#274));
#276=FACE_OUTER_BOUND('',#275,.T.);
#277=ORIENTED_EDGE('',*,*,#244,.T.);
#278=EDGE_LOOP('',(#277));
#279=FACE_BOUND('',#278,.T.);
#280=ADVANCED_FACE('',(#276,#279),#265,.F.);
#281=CARTESIAN_POINT('',(0.0,0.0,0.0));
#282=DIRECTION('',(0.0,0.0,1.0));
#283=DIRECTION('',(-1.0,0.0,0.0));
#284=AXIS2_PLACEMENT_3D('',#281,#282,#283);
#285=CYLINDRICAL_SURFACE('',#284,2.100000000000000);
#286=CARTESIAN_POINT('',(0.0,-2.100000000000000,2.032000000000000));
#287=VERTEX_POINT('',#286);
#288=CARTESIAN_POINT('',(0.0,0.0,2.032000000000000));
#289=DIRECTION('',(0.0,0.0,1.0));
#290=DIRECTION('',(-1.0,0.0,0.0));
#291=AXIS2_PLACEMENT_3D('',#288,#289,#290);
#292=CIRCLE('',#291,2.100000000000000);
#293=EDGE_CURVE('',#287,#287,#292,.T.);
#294=ORIENTED_EDGE('',*,*,#293,.T.);
#295=EDGE_LOOP('',(#294));
#296=FACE_OUTER_BOUND('',#295,.T.);
#297=ORIENTED_EDGE('',*,*,#273,.T.);
#298=EDGE_LOOP('',(#297));
#299=FACE_BOUND('',#298,.T.);
#300=ADVANCED_FACE('',(#296,#299),#285,.T.);
#301=CARTESIAN_POINT('',(0.0,0.0,1.905000000000000));
#302=DIRECTION('',(0.0,0.0,-1.0));
#303=DIRECTION('',(0.0,-1.0,0.0));
#304=AXIS2_PLACEMENT_3D('',#301,#302,#303);
#305=CYLINDRICAL_SURFACE('',#304,1.846000000000000);
#306=CARTESIAN_POINT('',(0.0,-1.846000000000000,2.032000000000000));
#307=VERTEX_POINT('',#306);
#308=CARTESIAN_POINT('',(0.0,0.0,2.032000000000000));
#309=DIRECTION('',(0.0,0.0,-1.0));
#310=DIRECTION('',(0.0,-1.0,0.0));
#311=AXIS2_PLACEMENT_3D('',#308,#309,#310);
#312=CIRCLE('',#311,1.846000000000000);
#313=EDGE_CURVE('',#307,#307,#312,.T.);
#314=ORIENTED_EDGE('',*,*,#313,.T.);
#315=EDGE_LOOP('',(#314));
#316=FACE_OUTER_BOUND('',#315,.T.);
#317=CARTESIAN_POINT('',(0.0,-1.846000000000000,1.778000000000000));
#318=VERTEX_POINT('',#317);
#319=CARTESIAN_POINT('',(0.0,0.0,1.778000000000000));
#320=DIRECTION('',(0.0,0.0,-1.0));
#321=DIRECTION('',(0.0,-1.0,0.0));
#322=AXIS2_PLACEMENT_3D('',#319,#320,#321);
#323=CIRCLE('',#322,1.846000000000000);
#324=EDGE_CURVE('',#318,#318,#323,.T.);
#325=ORIENTED_EDGE('',*,*,#324,.F.);
#326=EDGE_LOOP('',(#325));
#327=FACE_BOUND('',#326,.T.);
#328=ADVANCED_FACE('',(#316,#327),#305,.T.);
#329=CARTESIAN_POINT('',(0.0,-1.973000000000000,2.032000000000000));
#330=DIRECTION('',(0.0,0.0,1.0));
#331=DIRECTION('',(1.0,0.0,0.0));
#332=AXIS2_PLACEMENT_3D('',#329,#330,#331);
#333=PLANE('',#332);
#334=ORIENTED_EDGE('',*,*,#293,.F.);
#335=EDGE_LOOP('',(#334));
#336=FACE_OUTER_BOUND('',#335,.T.);
#337=ORIENTED_EDGE('',*,*,#313,.F.);
#338=EDGE_LOOP('',(#337));
#339=FACE_BOUND('',#338,.T.);
#340=ADVANCED_FACE('',(#336,#339),#333,.F.);
#341=CARTESIAN_POINT('',(0.0,-1.973000000000000,1.778000000000000));
#342=DIRECTION('',(0.0,0.0,-1.0));
#343=DIRECTION('',(-1.0,0.0,0.0));
#344=AXIS2_PLACEMENT_3D('',#341,#342,#343);
#345=PLANE('',#344);
#346=CARTESIAN_POINT('',(0.0,-2.100000000000000,1.778000000000000));
#347=VERTEX_POINT('',#346);
#348=CARTESIAN_POINT('',(0.0,0.0,1.778000000000000));
#349=DIRECTION('',(0.0,0.0,-1.0));
#350=DIRECTION('',(-1.0,0.0,0.0));
#351=AXIS2_PLACEMENT_3D('',#348,#349,#350);
#352=CIRCLE('',#351,2.100000000000000);
#353=EDGE_CURVE('',#347,#347,#352,.T.);
#354=ORIENTED_EDGE('',*,*,#353,.F.);
#355=EDGE_LOOP('',(#354));
#356=FACE_OUTER_BOUND('',#355,.T.);
#357=ORIENTED_EDGE('',*,*,#324,.T.);
#358=EDGE_LOOP('',(#357));
#359=FACE_BOUND('',#358,.T.);
#360=ADVANCED_FACE('',(#356,#359),#345,.F.);
#361=CARTESIAN_POINT('',(0.0,0.0,0.0));
#362=DIRECTION('',(0.0,0.0,1.0));
#363=DIRECTION('',(-1.0,0.0,0.0));
#364=AXIS2_PLACEMENT_3D('',#361,#362,#363);
#365=CYLINDRICAL_SURFACE('',#364,2.100000000000000);
#366=CARTESIAN_POINT('',(0.0,-2.100000000000001,1.397000000000000));
#367=VERTEX_POINT('',#366);
#368=CARTESIAN_POINT('',(0.0,0.0,1.397000000000000));
#369=DIRECTION('',(0.0,0.0,1.0));
#370=DIRECTION('',(-1.0,0.0,0.0));
#371=AXIS2_PLACEMENT_3D('',#368,#369,#370);
#372=CIRCLE('',#371,2.100000000000000);
#373=EDGE_CURVE('',#367,#367,#372,.T.);
#374=ORIENTED_EDGE('',*,*,#373,.T.);
#375=EDGE_LOOP('',(#374));
#376=FACE_OUTER_BOUND('',#375,.T.);
#377=ORIENTED_EDGE('',*,*,#353,.T.);
#378=EDGE_LOOP('',(#377));
#379=FACE_BOUND('',#378,.T.);
#380=ADVANCED_FACE('',(#376,#379),#365,.T.);
#381=CARTESIAN_POINT('',(0.0,0.0,1.016000000000000));
#382=DIRECTION('',(0.0,0.0,-1.0));
#383=DIRECTION('',(0.0,-1.0,0.0));
#384=AXIS2_PLACEMENT_3D('',#381,#382,#383);
#385=CYLINDRICAL_SURFACE('',#384,1.592000000000000);
#386=CARTESIAN_POINT('',(0.0,-1.592000000000000,1.397000000000000));
#387=VERTEX_POINT('',#386);
#388=CARTESIAN_POINT('',(0.0,0.0,1.397000000000000));
#389=DIRECTION('',(0.0,0.0,-1.0));
#390=DIRECTION('',(0.0,-1.0,0.0));
#391=AXIS2_PLACEMENT_3D('',#388,#389,#390);
#392=CIRCLE('',#391,1.592000000000000);
#393=EDGE_CURVE('',#387,#387,#392,.T.);
#394=ORIENTED_EDGE('',*,*,#393,.T.);
#395=EDGE_LOOP('',(#394));
#396=FACE_OUTER_BOUND('',#395,.T.);
#397=CARTESIAN_POINT('',(0.0,-1.592000000000000,0.635000000000000));
#398=VERTEX_POINT('',#397);
#399=CARTESIAN_POINT('',(0.0,0.0,0.635000000000000));
#400=DIRECTION('',(0.0,0.0,-1.0));
#401=DIRECTION('',(0.0,-1.0,0.0));
#402=AXIS2_PLACEMENT_3D('',#399,#400,#401);
#403=CIRCLE('',#402,1.592000000000000);
#404=EDGE_CURVE('',#398,#398,#403,.T.);
#405=ORIENTED_EDGE('',*,*,#404,.F.);
#406=EDGE_LOOP('',(#405));
#407=FACE_BOUND('',#406,.T.);
#408=ADVANCED_FACE('',(#396,#407),#385,.T.);
#409=CARTESIAN_POINT('',(0.0,-1.846000000000001,1.397000000000000));
#410=DIRECTION('',(0.0,0.0,1.0));
#411=DIRECTION('',(1.0,0.0,0.0));
#412=AXIS2_PLACEMENT_3D('',#409,#410,#411);
#413=PLANE('',#412);
#414=ORIENTED_EDGE('',*,*,#373,.F.);
#415=EDGE_LOOP('',(#414));
#416=FACE_OUTER_BOUND('',#415,.T.);
#417=ORIENTED_EDGE('',*,*,#393,.F.);
#418=EDGE_LOOP('',(#417));
#419=FACE_BOUND('',#418,.T.);
#420=ADVANCED_FACE('',(#416,#419),#413,.F.);
#421=CARTESIAN_POINT('',(4.625929E-017,-3.469447E-016,0.635000000000000));
#422=DIRECTION('',(0.0,0.0,1.0));
#423=DIRECTION('',(1.0,0.0,0.0));
#424=AXIS2_PLACEMENT_3D('',#421,#422,#423);
#425=PLANE('',#424);
#426=CARTESIAN_POINT('',(-1.385640646055104,2.399999999999999,0.635000000000000));
#427=VERTEX_POINT('',#426);
#428=CARTESIAN_POINT('',(1.385640646055102,2.400000000000000,0.635000000000000));
#429=VERTEX_POINT('',#428);
#430=CARTESIAN_POINT('',(-1.385640646055104,2.399999999999999,0.635000000000000));
#431=DIRECTION('',(1.0,0.0,0.0));
#432=VECTOR('',#431,2.771281292110206);
#433=LINE('',#430,#432);
#434=EDGE_CURVE('',#427,#429,#433,.T.);
#435=ORIENTED_EDGE('',*,*,#434,.F.);
#436=CARTESIAN_POINT('',(-2.771281292110204,-1.794644E-015,0.635000000000000));
#437=VERTEX_POINT('',#436);
#438=CARTESIAN_POINT('',(-2.771281292110204,-2.220446E-015,0.635000000000000));
#439=DIRECTION('',(0.499999999999999,0.866025403784439,0.0));
#440=VECTOR('',#439,2.771281292110204);
#441=LINE('',#438,#440);
#442=EDGE_CURVE('',#437,#427,#441,.T.);
#443=ORIENTED_EDGE('',*,*,#442,.F.);
#444=CARTESIAN_POINT('',(-1.385640646055101,-2.400000000000000,0.635000000000000));
#445=VERTEX_POINT('',#444);
#446=CARTESIAN_POINT('',(-1.385640646055100,-2.400000000000001,0.635000000000000));
#447=DIRECTION('',(-0.500000000000000,0.866025403784438,0.0));
#448=VECTOR('',#447,2.771281292110204);
#449=LINE('',#446,#448);
#450=EDGE_CURVE('',#445,#437,#449,.T.);
#451=ORIENTED_EDGE('',*,*,#450,.F.);
#452=CARTESIAN_POINT('',(1.385640646055102,-2.400000000000000,0.635000000000000));
#453=VERTEX_POINT('',#452);
#454=CARTESIAN_POINT('',(1.385640646055102,-2.400000000000000,0.635000000000000));
#455=DIRECTION('',(-1.0,0.0,0.0));
#456=VECTOR('',#455,2.771281292110203);
#457=LINE('',#454,#456);
#458=EDGE_CURVE('',#453,#445,#457,.T.);
#459=ORIENTED_EDGE('',*,*,#458,.F.);
#460=CARTESIAN_POINT('',(2.771281292110204,-4.258021E-016,0.635000000000000));
#461=VERTEX_POINT('',#460);
#462=CARTESIAN_POINT('',(2.771281292110204,-4.440892E-016,0.635000000000000));
#463=DIRECTION('',(-0.500000000000000,-0.866025403784439,0.0));
#464=VECTOR('',#463,2.771281292110203);
#465=LINE('',#462,#464);
#466=EDGE_CURVE('',#461,#453,#465,.T.);
#467=ORIENTED_EDGE('',*,*,#466,.F.);
#468=CARTESIAN_POINT('',(1.385640646055102,2.400000000000000,0.635000000000000));
#469=DIRECTION('',(0.500000000000000,-0.866025403784439,0.0));
#470=VECTOR('',#469,2.771281292110204);
#471=LINE('',#468,#470);
#472=EDGE_CURVE('',#429,#461,#471,.T.);
#473=ORIENTED_EDGE('',*,*,#472,.F.);
#474=EDGE_LOOP('',(#435,#443,#451,#459,#467,#473));
#475=FACE_OUTER_BOUND('',#474,.T.);
#476=ORIENTED_EDGE('',*,*,#404,.T.);
#477=EDGE_LOOP('',(#476));
#478=FACE_BOUND('',#477,.T.);
#479=ADVANCED_FACE('',(#475,#478),#425,.T.);
#480=CARTESIAN_POINT('',(-1.385640646055104,2.399999999999999,0.0));
#481=DIRECTION('',(0.0,1.0,0.0));
#482=DIRECTION('',(0.0,0.0,1.0));
#483=AXIS2_PLACEMENT_3D('',#480,#481,#482);
#484=PLANE('',#483);
#485=ORIENTED_EDGE('',*,*,#434,.T.);
#486=CARTESIAN_POINT('',(1.385640646055102,2.400000000000000,0.0));
#487=VERTEX_POINT('',#486);
#488=CARTESIAN_POINT('',(1.385640646055102,2.400000000000000,0.0));
#489=DIRECTION('',(0.0,0.0,1.0));
#490=VECTOR('',#489,0.635000000000000);
#491=LINE('',#488,#490);
#492=EDGE_CURVE('',#487,#429,#491,.T.);
#493=ORIENTED_EDGE('',*,*,#492,.F.);
#494=CARTESIAN_POINT('',(-1.385640646055104,2.399999999999999,0.0));
#495=VERTEX_POINT('',#494);
#496=CARTESIAN_POINT('',(1.385640646055102,2.400000000000000,0.0));
#497=DIRECTION('',(-1.0,0.0,0.0));
#498=VECTOR('',#497,2.771281292110206);
#499=LINE('',#496,#498);
#500=EDGE_CURVE('',#487,#495,#499,.T.);
#501=ORIENTED_EDGE('',*,*,#500,.T.);
#502=CARTESIAN_POINT('',(-1.385640646055104,2.399999999999999,0.0));
#503=DIRECTION('',(0.0,0.0,1.0));
#504=VECTOR('',#503,0.635000000000000);
#505=LINE('',#502,#504);
#506=EDGE_CURVE('',#495,#427,#505,.T.);
#507=ORIENTED_EDGE('',*,*,#506,.T.);
#508=EDGE_LOOP('',(#485,#493,#501,#507));
#509=FACE_OUTER_BOUND('',#508,.T.);
#510=ADVANCED_FACE('',(#509),#484,.T.);
#511=CARTESIAN_POINT('',(1.385640646055102,2.400000000000000,0.0));
#512=DIRECTION('',(0.866025403784439,0.500000000000000,0.0));
#513=DIRECTION('',(0.0,0.0,-1.0));
#514=AXIS2_PLACEMENT_3D('',#511,#512,#513);
#515=PLANE('',#514);
#516=ORIENTED_EDGE('',*,*,#472,.T.);
#517=CARTESIAN_POINT('',(2.771281292110204,-4.258021E-016,0.0));
#518=VERTEX_POINT('',#517);
#519=CARTESIAN_POINT('',(2.771281292110204,-4.258021E-016,0.0));
#520=DIRECTION('',(0.0,0.0,1.0));
#521=VECTOR('',#520,0.635000000000000);
#522=LINE('',#519,#521);
#523=EDGE_CURVE('',#518,#461,#522,.T.);
#524=ORIENTED_EDGE('',*,*,#523,.F.);
#525=CARTESIAN_POINT('',(2.771281292110204,-4.258021E-016,0.0));
#526=DIRECTION('',(-0.500000000000000,0.866025403784439,0.0));
#527=VECTOR('',#526,2.771281292110204);
#528=LINE('',#525,#527);
#529=EDGE_CURVE('',#518,#487,#528,.T.);
#530=ORIENTED_EDGE('',*,*,#529,.T.);
#531=ORIENTED_EDGE('',*,*,#492,.T.);
#532=EDGE_LOOP('',(#516,#524,#530,#531));
#533=FACE_OUTER_BOUND('',#532,.T.);
#534=ADVANCED_FACE('',(#533),#515,.T.);
#535=CARTESIAN_POINT('',(2.771281292110204,-4.258021E-016,0.0));
#536=DIRECTION('',(0.866025403784439,-0.500000000000000,0.0));
#537=DIRECTION('',(0.0,0.0,-1.0));
#538=AXIS2_PLACEMENT_3D('',#535,#536,#537);
#539=PLANE('',#538);
#540=ORIENTED_EDGE('',*,*,#466,.T.);
#541=CARTESIAN_POINT('',(1.385640646055102,-2.400000000000000,0.0));
#542=VERTEX_POINT('',#541);
#543=CARTESIAN_POINT('',(1.385640646055102,-2.400000000000000,0.0));
#544=DIRECTION('',(0.0,0.0,1.0));
#545=VECTOR('',#544,0.635000000000000);
#546=LINE('',#543,#545);
#547=EDGE_CURVE('',#542,#453,#546,.T.);
#548=ORIENTED_EDGE('',*,*,#547,.F.);
#549=CARTESIAN_POINT('',(1.385640646055102,-2.400000000000000,0.0));
#550=DIRECTION('',(0.500000000000000,0.866025403784439,0.0));
#551=VECTOR('',#550,2.771281292110203);
#552=LINE('',#549,#551);
#553=EDGE_CURVE('',#542,#518,#552,.T.);
#554=ORIENTED_EDGE('',*,*,#553,.T.);
#555=ORIENTED_EDGE('',*,*,#523,.T.);
#556=EDGE_LOOP('',(#540,#548,#554,#555));
#557=FACE_OUTER_BOUND('',#556,.T.);
#558=ADVANCED_FACE('',(#557),#539,.T.);
#559=CARTESIAN_POINT('',(1.385640646055102,-2.400000000000000,0.0));
#560=DIRECTION('',(0.0,-1.0,0.0));
#561=DIRECTION('',(0.0,0.0,-1.0));
#562=AXIS2_PLACEMENT_3D('',#559,#560,#561);
#563=PLANE('',#562);
#564=ORIENTED_EDGE('',*,*,#458,.T.);
#565=CARTESIAN_POINT('',(-1.385640646055101,-2.400000000000000,0.0));
#566=VERTEX_POINT('',#565);
#567=CARTESIAN_POINT('',(-1.385640646055101,-2.400000000000000,0.0));
#568=DIRECTION('',(0.0,0.0,1.0));
#569=VECTOR('',#568,0.635000000000000);
#570=LINE('',#567,#569);
#571=EDGE_CURVE('',#566,#445,#570,.T.);
#572=ORIENTED_EDGE('',*,*,#571,.F.);
#573=CARTESIAN_POINT('',(-1.385640646055101,-2.400000000000000,0.0));
#574=DIRECTION('',(1.0,0.0,0.0));
#575=VECTOR('',#574,2.771281292110203);
#576=LINE('',#573,#575);
#577=EDGE_CURVE('',#566,#542,#576,.T.);
#578=ORIENTED_EDGE('',*,*,#577,.T.);
#579=ORIENTED_EDGE('',*,*,#547,.T.);
#580=EDGE_LOOP('',(#564,#572,#578,#579));
#581=FACE_OUTER_BOUND('',#580,.T.);
#582=ADVANCED_FACE('',(#581),#563,.T.);
#583=CARTESIAN_POINT('',(-1.385640646055101,-2.400000000000000,0.0));
#584=DIRECTION('',(-0.866025403784438,-0.500000000000001,0.0));
#585=DIRECTION('',(0.0,0.0,1.0));
#586=AXIS2_PLACEMENT_3D('',#583,#584,#585);
#587=PLANE('',#586);
#588=ORIENTED_EDGE('',*,*,#450,.T.);
#589=CARTESIAN_POINT('',(-2.771281292110204,-1.794644E-015,0.0));
#590=VERTEX_POINT('',#589);
#591=CARTESIAN_POINT('',(-2.771281292110204,-1.794644E-015,0.0));
#592=DIRECTION('',(0.0,0.0,1.0));
#593=VECTOR('',#592,0.635000000000000);
#594=LINE('',#591,#593);
#595=EDGE_CURVE('',#590,#437,#594,.T.);
#596=ORIENTED_EDGE('',*,*,#595,.F.);
#597=CARTESIAN_POINT('',(-2.771281292110204,-1.794644E-015,0.0));
#598=DIRECTION('',(0.500000000000000,-0.866025403784438,0.0));
#599=VECTOR('',#598,2.771281292110204);
#600=LINE('',#597,#599);
#601=EDGE_CURVE('',#590,#566,#600,.T.);
#602=ORIENTED_EDGE('',*,*,#601,.T.);
#603=ORIENTED_EDGE('',*,*,#571,.T.);
#604=EDGE_LOOP('',(#588,#596,#602,#603));
#605=FACE_OUTER_BOUND('',#604,.T.);
#606=ADVANCED_FACE('',(#605),#587,.T.);
#607=CARTESIAN_POINT('',(-2.771281292110204,-1.794644E-015,0.0));
#608=DIRECTION('',(-0.866025403784439,0.499999999999999,0.0));
#609=DIRECTION('',(0.0,0.0,1.0));
#610=AXIS2_PLACEMENT_3D('',#607,#608,#609);
#611=PLANE('',#610);
#612=ORIENTED_EDGE('',*,*,#442,.T.);
#613=ORIENTED_EDGE('',*,*,#506,.F.);
#614=CARTESIAN_POINT('',(-1.385640646055104,2.399999999999999,0.0));
#615=DIRECTION('',(-0.499999999999999,-0.866025403784439,0.0));
#616=VECTOR('',#615,2.771281292110204);
#617=LINE('',#614,#616);
#618=EDGE_CURVE('',#495,#590,#617,.T.);
#619=ORIENTED_EDGE('',*,*,#618,.T.);
#620=ORIENTED_EDGE('',*,*,#595,.T.);
#621=EDGE_LOOP('',(#612,#613,#619,#620));
#622=FACE_OUTER_BOUND('',#621,.T.);
#623=ADVANCED_FACE('',(#622),#611,.T.);
#624=CARTESIAN_POINT('',(0.0,0.0,0.0));
#625=DIRECTION('',(0.0,0.0,-1.0));
#626=DIRECTION('',(-1.0,0.0,0.0));
#627=AXIS2_PLACEMENT_3D('',#624,#625,#626);
#628=PLANE('',#627);
#629=ORIENTED_EDGE('',*,*,#618,.F.);
#630=ORIENTED_EDGE('',*,*,#500,.F.);
#631=ORIENTED_EDGE('',*,*,#529,.F.);
#632=ORIENTED_EDGE('',*,*,#553,.F.);
#633=ORIENTED_EDGE('',*,*,#577,.F.);
#634=ORIENTED_EDGE('',*,*,#601,.F.);
#635=EDGE_LOOP('',(#629,#630,#631,#632,#633,#634));
#636=FACE_OUTER_BOUND('',#635,.T.);
#637=ORIENTED_EDGE('',*,*,#173,.T.);
#638=EDGE_LOOP('',(#637));
#639=FACE_BOUND('',#638,.T.);
#640=ADVANCED_FACE('',(#636,#639),#628,.T.);
#641=CLOSED_SHELL('',(#140,#160,#180,#200,#220,#248,#260,#280,#300,#328,#340,#360,#380,#408,#420,#479,#510,#534,#558,#582,#606,#623,#640));
#642=MANIFOLD_SOLID_BREP('Solid1',#641);
#643=DRAUGHTING_PRE_DEFINED_COLOUR('white');
#644=FILL_AREA_STYLE_COLOUR('Chrome',#643);
#645=FILL_AREA_STYLE('Chrome',(#644));
#646=SURFACE_STYLE_FILL_AREA(#645);
#647=SURFACE_SIDE_STYLE('Chrome',(#646));
#648=SURFACE_STYLE_USAGE(.BOTH.,#647);
#649=PRESENTATION_STYLE_ASSIGNMENT((#648));
#650=STYLED_ITEM('',(#649),#642);
#651=MECHANICAL_DESIGN_GEOMETRIC_PRESENTATION_REPRESENTATION('',(#650),#42);
#652=ADVANCED_BREP_SHAPE_REPRESENTATION('ABSR',(#642),#81);
#653=SHAPE_REPRESENTATION_RELATIONSHIP('SRR','None',#652,#86);
#654=AXIS2_PLACEMENT_3D('',#655,#656,#657);
#655=CARTESIAN_POINT('',(0.0,0.0,0.0));
#656=DIRECTION('',(0.0,0.0,1.0));
#657=DIRECTION('',(1.0,0.0,0.0));
#658=NEXT_ASSEMBLY_USAGE_OCCURRENCE('SO-M3-6 PEM THRU THD STANDOFF:1','SO-M3-6 PEM THRU THD STANDOFF:1','SO-M3-6 PEM THRU THD STANDOFF:1',#12,#57,'SO-M3-6 PEM THRU THD STANDOFF:1');
#659=PRODUCT_DEFINITION_SHAPE('SO-M3-6 PEM THRU THD STANDOFF:1','SO-M3-6 PEM THRU THD STANDOFF:1',#658);
#660=ITEM_DEFINED_TRANSFORMATION('SO-M3-6 PEM THRU THD STANDOFF:1','SO-M3-6 PEM THRU THD STANDOFF:1',#82,#654);
#664=(REPRESENTATION_RELATIONSHIP('SO-M3-6 PEM THRU THD STANDOFF:1','SO-M3-6 PEM THRU THD STANDOFF:1',#86,#47)REPRESENTATION_RELATIONSHIP_WITH_TRANSFORMATION(#660)SHAPE_REPRESENTATION_RELATIONSHIP());
#665=CONTEXT_DEPENDENT_SHAPE_REPRESENTATION(#664,#659);
ENDSEC;
END-ISO-10303-21;
