0
SECTION
2
HEADER
9
$INSUNITS
70
1
9
$ACADVER
1
AC1014
9
$HANDSEED
5
FFFF
0
ENDSEC
0
SECTION
2
TABLES
0
TABLE
2
VPORT
5
8
100
AcDbSymbolTable
0
ENDTAB
0
TABLE
2
LTYPE
5
5
100
AcDbSymbolTable
0
LTYPE
5
14
100
AcDbSymbolTableRecord
100
AcDbLinetypeTableRecord
2
BYBLOCK
70
0
0
LTYPE
5
15
100
AcDbSymbolTableRecord
100
AcDbLinetypeTableRecord
2
BYLAYER
70
0
0
ENDTAB
0
TABLE
2
LAYER
5
2
100
AcDbSymbolTable
70
2
0
LAYER
5
50
100
AcDbSymbolTableRecord
100
AcDbLayerTableRecord
2
0
70
0
6
CONTINUOUS
0
ENDTAB
0
TABLE
2
STYLE
5
3
100
AcDbSymbolTable
70
1
0
STYLE
5
11
100
AcDbSymbolTableRecord
100
AcDbTextStyleTableRecord
2
STANDARD
70
0
0
ENDTAB
0
TABLE
2
VIEW
5
6
100
AcDbSymbolTable
70
0
0
ENDTAB
0
TABLE
2
UCS
5
7
100
AcDbSymbolTable
70
0
0
ENDTAB
0
TABLE
2
APPID
5
9
100
AcDbSymbolTable
70
2
0
APPID
5
12
100
AcDbSymbolTableRecord
100
AcDbRegAppTableRecord
2
ACAD
70
0
0
ENDTAB
0
TABLE
2
DIMSTYLE
5
A
100
AcDbSymbolTable
70
1
0
ENDTAB
0
TABLE
2
BLOCK_RECORD
5
1
100
AcDbSymbolTable
70
1
0
BLOCK_RECORD
5
1F
100
AcDbSymbolTableRecord
100
AcDbBlockTableRecord
2
*MODEL_SPACE
0
BLOCK_RECORD
5
1B
100
AcDbSymbolTableRecord
100
AcDbBlockTableRecord
2
*PAPER_SPACE
0
ENDTAB
0
ENDSEC
0
SECTION
2
BLOCKS
0
BLOCK
5
20
100
AcDbEntity
100
AcDbBlockBegin
2
*MODEL_SPACE
0
ENDBLK
5
21
100
AcDbEntity
100
AcDbBlockEnd
0
BLOCK
5
1C
100
AcDbEntity
100
AcDbBlockBegin
2
*PAPER_SPACE
0
ENDBLK
5
1D
100
AcDbEntity
100
AcDbBlockEnd
0
ENDSEC
0
SECTION
2
ENTITIES
0
ARC
5
100
100
AcDbEntity
8
0
100
AcDbCircle
10
0.0040723796042814505
20
0.0023511901821395018
30
0
40
1.4218750000030389
210
0
220
-0
230
1
100
AcDbArc
50
59.219318267075472
51
60.780681732925224
0
ARC
5
101
100
AcDbEntity
8
0
100
AcDbCircle
10
0.70770343577241823
20
1.2603545412351631
30
0
40
0.019537187563350902
210
0
220
0
230
1
100
AcDbArc
50
151.55730390853938
51
240.78068173293434
0
LINE
5
102
100
AcDbEntity
8
0
100
AcDbLine
10
0.69052450593442194
20
1.2696597047214622
30
0
11
0.69573580685560221
21
1.2792806611959462
31
0
0
SPLINE
5
103
100
AcDbEntity
8
0
100
AcDbSpline
70
0
71
3
72
10
73
6
74
0
42
0.000000001
43
0.0000000001
44
0.0000000001
40
-0
40
-0
40
-0
40
-0
40
0.074700460584762179
40
0.074700460584762179
40
0.14784586684705586
40
0.14784586684705586
40
0.14784586684705586
40
0.14784586684705586
10
0.69573580685560221
20
1.2792806611959462
30
0
10
0.70033231293549048
20
1.2879394751535072
30
0
10
0.70600363741535188
20
1.3040259373534557
30
0
10
0.71595220843700602
20
1.3448794529068164
30
0
10
0.71838339918272276
20
1.3615418740357783
30
0
10
0.71976829844077039
20
1.3718973797325287
30
0
0
ARC
5
104
100
AcDbEntity
8
0
100
AcDbCircle
10
0.69994478651627612
20
1.3745484879874796
30
0
40
0.020000000000000774
210
0
220
0
230
1
100
AcDbArc
50
-7.6172849103644493
51
63.013988105203786
0
ARC
5
105
100
AcDbEntity
8
0
100
AcDbCircle
10
0
20
0
30
0
40
1.5624999999999949
210
0
220
-0
230
1
100
AcDbArc
50
63.013988105203431
51
64.304420455252497
0
ARC
5
106
100
AcDbEntity
8
0
100
AcDbCircle
10
0.66881190224544906
20
1.3899629093665857
30
0
40
0.01999999999999471
210
0
220
-0
230
1
100
AcDbArc
50
64.304420455251901
51
135.11245771817909
0
SPLINE
5
107
100
AcDbEntity
8
0
100
AcDbSpline
70
0
71
3
72
10
73
6
74
0
42
0.000000001
43
0.0000000001
44
0.0000000001
40
-0
40
-0
40
-0
40
-0
40
0.080002153185144531
40
0.080002153185144531
40
0.16173916551729456
40
0.16173916551729456
40
0.16173916551729456
40
0.16173916551729456
10
0.65464203629815643
20
1.4040772601853717
30
0
10
0.64723272885072181
20
1.3966388101365041
30
0
10
0.63551042510202127
20
1.3845848846287774
30
0
10
0.60914289327773929
20
1.3518119868626204
30
0
10
0.59982612090959353
20
1.337510831232064
30
0
10
0.59575211927277838
20
1.3285871593524254
30
0
0
LINE
5
108
100
AcDbEntity
8
0
100
AcDbLine
10
0.59575211927277827
20
1.3285871593524254
30
0
11
0.59129174031272203
21
1.3185958891475063
31
0
0
ARC
5
109
100
AcDbEntity
8
0
100
AcDbCircle
10
0.57345158790189121
20
1.3265602258960305
30
0
40
0.019537187563351228
210
0
220
0
230
1
100
AcDbArc
50
246.71931826707504
51
335.94269609146005
0
ARC
5
110
100
AcDbEntity
8
0
100
AcDbCircle
10
0.0037538744948521631
20
0.0025082594690229235
30
0
40
1.4218750000014806
210
0
220
-0
230
1
100
AcDbArc
50
66.719318267074584
51
68.2806817329257
0
ARC
5
111
100
AcDbEntity
8
0
100
AcDbCircle
10
0.53716288222216746
20
1.3415914999495369
30
0
40
0.019537187563351027
210
0
220
0
230
1
100
AcDbArc
50
159.05730390853961
51
248.28068173295884
0
LINE
5
112
100
AcDbEntity
8
0
100
AcDbLine
10
0.51891635295253302
20
1.3485747561741022
30
0
11
0.52282728365778042
21
1.3587936152979849
31
0
0
SPLINE
5
113
100
AcDbEntity
8
0
100
AcDbSpline
70
0
71
3
72
10
73
6
74
0
42
0.000000001
43
0.0000000001
44
0.0000000001
40
-0
40
-0
40
-0
40
-0
40
0.074998571388763369
40
0.074998571388763369
40
0.14848042022864621
40
0.14848042022864621
40
0.14848042022864621
40
0.14848042022864621
10
0.52282728365778042
20
1.3587936152979849
30
0
10
0.52626794019493206
20
1.3680149701763356
30
0
10
0.52979930852750223
20
1.3847723962594645
30
0
10
0.53432647761567698
20
1.4267317771904646
30
0
10
0.53455051490241023
20
1.4441417087006427
30
0
10
0.53456590561759931
20
1.454110847611245
30
0
0
ARC
5
114
100
AcDbEntity
8
0
100
AcDbCircle
10
0.51456592945180668
20
1.454141724264661
30
0
40
0.020000000000000028
210
0
220
0
230
1
100
AcDbArc
50
-0.088455131450001667
51
70.5130484630795
0
ARC
5
115
100
AcDbEntity
8
0
100
AcDbCircle
10
0
20
0
30
0
40
1.5625000000000009
210
0
220
-0
230
1
100
AcDbArc
50
70.513048463079357
51
71.795228489667466
0
ARC
5
116
100
AcDbEntity
8
0
100
AcDbCircle
10
0.48189864087221645
20
1.4652917627303808
30
0
40
0.020000000000002384
210
0
220
-0
230
1
100
AcDbArc
50
71.795228489665348
51
142.58334429616787
0
SPLINE
5
117
100
AcDbEntity
8
0
100
AcDbSpline
70
0
71
3
72
10
73
6
74
0
42
0.000000001
43
0.0000000001
44
0.0000000001
40
-0
40
-0
40
-0
40
-0
40
0.075894912780846341
40
0.075894912780846341
40
0.15331257898858047
40
0.15331257898858047
40
0.15331257898858047
40
0.15331257898858047
10
0.46601388037789943
20
1.4774438976884117
30
0
10
0.45996214008274067
20
1.469533316890471
30
0
10
0.4495288510670179
20
1.4555735706778505
30
0
10
0.42755518815134724
20
1.4194998582332574
30
0
10
0.42014920229176766
20
1.4040448939193659
30
0
10
0.41726318092651615
20
1.3946277995032579
30
0
0
LINE
5
118
100
AcDbEntity
8
0
100
AcDbLine
10
0.41726318092651615
20
1.3946277995032579
30
0
11
0.41414508358207835
21
1.3841398097184794
31
0
0
ARC
5
119
100
AcDbEntity
8
0
100
AcDbCircle
10
0.39541800159889157
20
1.3897074032992425
30
0
40
0.019537187563350961
210
0
220
0
230
1
100
AcDbArc
50
254.2193182670743
51
343.4426960914621
0
ARC
5
120
100
AcDbEntity
8
0
100
AcDbCircle
10
0.0034175925837612417
20
0.0026224117439264238
30
0
40
1.4218750000034257
210
0
220
-0
230
1
100
AcDbArc
50
74.219318267075778
51
75.780681732924307
0
ARC
5
121
100
AcDbEntity
8
0
100
AcDbCircle
10
0.35747777586040258
20
1.3998734561465254
30
0
40
0.019537187563351214
210
0
220
0
230
1
100
AcDbArc
50
166.55730390853921
51
255.78068173298993
0
LINE
5
122
100
AcDbEntity
8
0
100
AcDbLine
10
0.33847585033382699
20
1.4044153196592304
30
0
11
0.34101949371446005
21
1.415057233919699
31
0
0
SPLINE
5
123
100
AcDbEntity
8
0
100
AcDbSpline
70
0
71
3
72
10
73
6
74
0
42
0.000000001
43
0.0000000001
44
0.0000000001
40
-0
40
-0
40
-0
40
-0
40
0.084212187472230415
40
0.084212187472230415
40
0.17833413506046514
40
0.17833413506046514
40
0.17833413506046514
40
0.17833413506046514
10
0.34101949371446005
20
1.415057233919699
30
0
10
0.34349829063102083
20
1.425827123176687
30
0
10
0.34447255213549471
20
1.4443920672429902
30
0
10
0.34355094982612938
20
1.4842708474021149
30
0
10
0.34138526664604057
20
1.5021429424842476
30
0
10
0.34016806738259148
20
1.5114611868204348
30
0
0
ARC
5
124
100
AcDbEntity
8
0
100
AcDbCircle
10
0.32033654430043956
20
1.5088706864359289
30
0
40
0.020000000000001218
210
0
220
-0
230
1
100
AcDbArc
50
7.4421458654842905
51
78.013945380839857
0
ARC
5
125
100
AcDbEntity
8
0
100
AcDbCircle
10
0
20
0
30
0
40
1.5624999999999944
210
0
220
-0
230
1
100
AcDbArc
50
78.0139453808398
51
79.287480899021261
0
ARC
5
126
100
AcDbEntity
8
0
100
AcDbCircle
10
0.28672192281518133
20
1.5156176262425656
30
0
40
0.019999999999998668
210
0
220
-0
230
1
100
AcDbArc
50
79.287480899019357
51
150.05249609421145
0
SPLINE
5
127
100
AcDbEntity
8
0
100
AcDbSpline
70
0
71
3
72
10
73
6
74
0
42
0.000000001
43
0.0000000001
44
0.0000000001
40
-0
40
-0
40
-0
40
-0
40
0.071605771373082203
40
0.071605771373082203
40
0.13564965541254842
40
0.13564965541254842
40
0.13564965541254842
40
0.13564965541254842
10
0.26939225971397157
20
1.5256017524836849
30
0
10
0.26470117665057274
20
1.5174593384730624
30
0
10
0.25585099934139505
20
1.5017640810474768
30
0
10
0.23972537817520154
20
1.4652524849440658
30
0
10
0.233514091792074
20
1.4477137897405634
30
0
10
0.23168120690038491
20
1.4368059713469006
30
0
0
LINE
5
128
100
AcDbEntity
8
0
100
AcDbLine
10
0.23168120690038493
20
1.4368059713469006
30
0
11
0.22995874268162877
21
1.4260007143953002
31
0
0
ARC
5
129
100
AcDbEntity
8
0
100
AcDbCircle
10
0.21066515669094646
20
1.4290763017385077
30
0
40
0.019537187563350891
210
0
220
0
230
1
100
AcDbArc
50
261.71931826707328
51
350.9426960914613
0
ARC
5
130
100
AcDbEntity
8
0
100
AcDbCircle
10
0.0030692877505213208
20
0.0026916938406191522
30
0
40
1.4218749999975644
210
0
220
-0
230
1
100
AcDbArc
50
81.719318267072353
51
83.280681732927675
0
ARC
5
131
100
AcDbEntity
8
0
100
AcDbCircle
10
0.17172257867509505
20
1.4342031893967861
30
0
40
0.01953718756335102
210
0
220
0
230
1
100
AcDbArc
50
174.05730390853918
51
263.2806817329656
0
LINE
5
132
100
AcDbEntity
8
0
100
AcDbLine
10
0.1522903851056675
20
1.4362259476536858
30
0
11
0.15342321871821232
21
1.4471088309472475
31
0
0
SPLINE
5
133
100
AcDbEntity
8
0
100
AcDbSpline
70
0
71
3
72
10
73
6
74
0
42
0.000000001
43
0.0000000001
44
0.0000000001
40
-0
40
-0
40
-0
40
-0
40
0.055728595584673253
40
0.055728595584673253
40
0.10499922778481535
40
0.10499922778481535
40
0.10499922778481535
40
0.10499922778481535
10
0.15342321871821238
20
1.4471088309472475
30
0
10
0.15411928714733697
20
1.4543890949698148
30
0
10
0.15386078111019758
20
1.471349898710542
30
0
10
0.14677173047634534
20
1.5167568308325254
30
0
10
0.14210795314403238
20
1.5346806464982836
30
0
10
0.13989673016881662
20
1.5429478506479268
30
0
0
ARC
5
134
100
AcDbEntity
8
0
100
AcDbCircle
10
0.12057589741191445
20
1.5377801217870228
30
0
40
0.020000000000000104
210
0
220
-0
230
1
100
AcDbArc
50
14.974340901553331
51
85.516664459070867
0
ARC
5
135
100
AcDbEntity
8
0
100
AcDbCircle
10
0
20
0
30
0
40
1.5625
210
0
220
-0
230
1
100
AcDbArc
50
85.516664459070824
51
86.781309106873962
0
ARC
5
136
100
AcDbEntity
8
0
100
AcDbCircle
10
0.086607072955412173
20
1.5400667079429058
30
0
40
0.019999999999998901
210
0
220
-0
230
1
100
AcDbArc
50
86.781309106870012
51
157.52008940032272
0
SPLINE
5
137
100
AcDbEntity
8
0
100
AcDbSpline
70
0
71
3
72
10
73
6
74
0
42
0.000000001
43
0.0000000001
44
0.0000000001
40
-0
40
-0
40
-0
40
-0
40
0.065384965596486877
40
0.065384965596486877
40
0.13937203479607624
40
0.13937203479607624
40
0.13937203479607624
40
0.13937203479607624
10
0.068126799864443643
20
1.5477138973928417
30
0
10
0.064845886368102235
20
1.5397852095897031
30
0
10
0.057878794123040721
20
1.5226170548905131
30
0
10
0.044915566135593082
20
1.4785113392912994
30
0
10
0.042441951556230435
20
1.4617156756731458
30
0
10
0.042181556223014088
20
1.4543999946691104
30
0
0
LINE
5
138
100
AcDbEntity
8
0
100
AcDbLine
10
0.042181556223014095
20
1.4543999946691104
30
0
11
0.041884196970279619
21
1.4434623514929124
31
0
0
ARC
5
139
100
AcDbEntity
8
0
100
AcDbCircle
10
0.022354225577594533
20
1.4439933084464081
30
0
40
0.019537187563351165
210
0
220
0
230
1
100
AcDbArc
50
269.21931826707458
51
358.44269609146102
0
ARC
5
140
100
AcDbEntity
8
0
100
AcDbCircle
10
0.0027149195843939066
20
0.0027149203070940355
30
0
40
1.4218750000004123
210
0
220
-0
230
1
100
AcDbArc
50
89.219318267074385
51
90.780681732926908
0
ARC
5
141
100
AcDbEntity
8
0
100
AcDbCircle
10
-0.016924386408844878
20
1.4439933084464081
30
0
40
0.019537187563350888
210
0
220
0
230
1
100
AcDbArc
50
181.55730390853969
51
270.78068173294258
0
LINE
5
142
100
AcDbEntity
8
0
100
AcDbLine
10
-0.03645435780152969
20
1.4434623514929121
30
0
11
-0.036751717054264388
21
1.4543999946691093
31
0
0
SPLINE
5
143
100
AcDbEntity
8
0
100
AcDbSpline
70
0
71
3
72
10
73
6
74
0
42
0.000000001
43
0.0000000001
44
0.0000000001
40
-0
40
-0
40
-0
40
-0
40
0.056040165841258927
40
0.056040165841258927
40
0.1053981358611409
40
0.1053981358611409
40
0.1053981358611409
40
0.1053981358611409
10
-0.03675171705426436
20
1.4543999946691093
30
0
10
-0.037013323197430073
20
1.4617496927933309
30
0
10
-0.03950431545754779
20
1.4786134157238451
30
0
10
-0.052499823841894493
20
1.5227556505295443
30
0
10
-0.059477323065381511
20
1.5399442547198563
30
0
10
-0.062820552728403048
20
1.5480123655360742
30
0
0
ARC
5
144
100
AcDbEntity
8
0
100
AcDbCircle
10
-0.081297083558088193
20
1.5403561387565374
30
0
40
0.020000000000000035
210
0
220
-0
230
1
100
AcDbArc
50
22.507932548489727
51
93.021159777740905
0
ARC
5
145
100
AcDbEntity
8
0
100
AcDbCircle
10
0
20
0
30
0
40
1.5625
210
0
220
0
230
1
100
AcDbArc
50
93.021159777740962
51
94.276817894247529
0
ARC
5
146
100
AcDbEntity
8
0
100
AcDbCircle
10
-0.11503233166069329
20
1.5382047369166121
30
0
40
0.020000000000000597
210
0
220
0
230
1
100
AcDbArc
50
94.27681789424642
51
164.98632855027248
0
SPLINE
5
147
100
AcDbEntity
8
0
100
AcDbSpline
70
0
71
3
72
10
73
6
74
0
42
0.000000001
43
0.0000000001
44
0.0000000001
40
-0
40
-0
40
-0
40
-0
40
0.066842748828161477
40
0.066842748828161477
40
0.14280512136846879
40
0.14280512136846879
40
0.14280512136846879
40
0.14280512136846879
10
-0.13434961249090774
20
1.5433857272974778
30
0
10
-0.1366219985557473
20
1.5349131541266889
30
0
10
-0.14129650334529797
20
1.5169590070280321
30
0
10
-0.14842378038983992
20
1.4714952929280571
30
0
10
-0.14869399302776981
20
1.4544366321601234
30
0
10
-0.1479933795432761
20
1.4471088308528586
30
0
0
LINE
5
148
100
AcDbEntity
8
0
100
AcDbLine
10
-0.1479933795432761
20
1.4471088308528584
30
0
11
-0.14686054593073089
21
1.4362259475592962
31
0
0
ARC
5
149
100
AcDbEntity
8
0
100
AcDbCircle
10
-0.16629273950015858
20
1.4342031893023968
30
0
40
0.019537187563351207
210
0
220
0
230
1
100
AcDbArc
50
-83.280681732925828
51
5.9426960914601583
0
ARC
5
150
100
AcDbEntity
8
0
100
AcDbCircle
10
0.0023605514246189843
20
0.0026916937448287601
30
0
40
1.421874999998979
210
0
220
0
230
1
100
AcDbArc
50
96.719318267073334
51
98.280681732927505
0
ARC
5
151
100
AcDbEntity
8
0
100
AcDbCircle
10
-0.20523531751600982
20
1.4290763016441175
30
0
40
0.019537187563350808
210
0
220
0
230
1
100
AcDbArc
50
189.05730390853944
51
278.28068173293684
0
LINE
5
152
100
AcDbEntity
8
0
100
AcDbLine
10
-0.22452890350669205
20
1.4260007143009097
30
0
11
-0.22625136772544846
21
1.4368059712525099
31
0
0
SPLINE
5
153
100
AcDbEntity
8
0
100
AcDbSpline
70
0
71
3
72
10
73
6
74
0
42
0.000000001
43
0.0000000001
44
0.0000000001
40
-0
40
-0
40
-0
40
-0
40
0.056351524959449534
40
0.056351524959449534
40
0.105651783161911
40
0.105651783161911
40
0.105651783161911
40
0.105651783161911
10
-0.22625136772544843
20
1.4368059712525099
30
0
10
-0.22747683497693152
20
1.4440989410877514
30
0
10
-0.23217908851702426
20
1.4605716074277642
30
0
10
-0.25084608590684582
20
1.502626007436731
30
0
10
-0.2600025228299625
20
1.5187566296061827
30
0
10
-0.26450930888624419
20
1.5265492091252801
30
0
0
ARC
5
154
100
AcDbEntity
8
0
100
AcDbCircle
10
-0.28182236772292935
20
1.5165363177487865
30
0
40
0.019999999999999532
210
0
220
-0
230
1
100
AcDbArc
50
30.042653500459188
51
100.52735463430676
0
ARC
5
155
100
AcDbEntity
8
0
100
AcDbCircle
10
0
20
0
30
0
40
1.5625000000000018
210
0
220
0
230
1
100
AcDbArc
50
100.52735463430702
51
101.77408367234597
0
ARC
5
156
100
AcDbEntity
8
0
100
AcDbCircle
10
-0.31475216049612259
20
1.5100454719852046
30
0
40
0.020000000000003602
210
0
220
0
230
1
100
AcDbArc
50
101.77408367233215
51
172.45149571028611
0
SPLINE
5
157
100
AcDbEntity
8
0
100
AcDbSpline
70
0
71
3
72
10
73
6
74
0
42
0.000000001
43
0.0000000001
44
0.0000000001
40
-0
40
-0
40
-0
40
-0
40
0.068997870051399401
40
0.068997870051399401
40
0.14797274337405247
40
0.14797274337405247
40
0.14797274337405247
40
0.14797274337405247
10
-0.33457884065463517
20
1.5126727812346172
30
0
10
-0.3357683336979142
20
1.503696411802576
30
0
10
-0.33805307819609504
20
1.4852929871153564
30
0
10
-0.33920953514352009
20
1.4393026920282344
30
0
10
-0.33724987452840705
20
1.4222705659348367
30
0
10
-0.33558965452106987
20
1.4150572337325351
30
0
0
LINE
5
158
100
AcDbEntity
8
0
100
AcDbLine
10
-0.33558965452106987
20
1.4150572337325351
30
0
11
-0.33304601114043658
21
1.4044153194720663
31
0
0
ARC
5
159
100
AcDbEntity
8
0
100
AcDbCircle
10
-0.35204793666701201
20
1.3998734559593611
30
0
40
0.019537187563351145
210
0
220
0
230
1
100
AcDbArc
50
-75.780681732925686
51
13.44269609146151
0
ARC
5
160
100
AcDbEntity
8
0
100
AcDbCircle
10
0.0020122466082223055
20
0.0026224115620888514
30
0
40
1.4218749999979172
210
0
220
0
230
1
100
AcDbArc
50
104.21931826707257
51
105.7806817329279
0
ARC
5
161
100
AcDbEntity
8
0
100
AcDbCircle
10
-0.3899881624055011
20
1.3897074031120777
30
0
40
0.019537187563350884
210
0
220
0
230
1
100
AcDbArc
50
196.5573039085393
51
285.78068173293633
0
LINE
5
162
100
AcDbEntity
8
0
100
AcDbLine
10
-0.40871524438868767
20
1.3841398095313142
30
0
11
-0.41183334173312564
21
1.3946277993160925
31
0
0
SPLINE
5
163
100
AcDbEntity
8
0
100
AcDbSpline
70
0
71
3
72
10
73
6
74
0
42
0.000000001
43
0.0000000001
44
0.0000000001
40
-0
40
-0
40
-0
40
-0
40
0.056654913720604425
40
0.056654913720604425
40
0.10576571578940799
40
0.10576571578940799
40
0.10576571578940799
40
0.10576571578940799
10
-0.41183334173312564
20
1.3946277993160925
30
0
10
-0.41401191484929822
20
1.4017364884527741
30
0
10
-0.42086450331052616
20
1.4175264808676051
30
0
10
-0.44485092842768864
20
1.4567215348677642
30
0
10
-0.45600590688296194
20
1.4714987556779322
30
0
10
-0.46170797086821896
20
1.4789088890177882
30
0
0
ARC
5
164
100
AcDbEntity
8
0
100
AcDbCircle
10
-0.47755842285356292
20
1.4667120381184668
30
0
40
0.0199999999999993
210
0
220
-0
230
1
100
AcDbArc
50
37.578118811668134
51
108.03514281276652
0
ARC
5
165
100
AcDbEntity
8
0
100
AcDbCircle
10
0
20
0
30
0
40
1.5625000000000022
210
0
220
0
230
1
100
AcDbArc
50
108.03514281276689
51
109.27315323661723
0
ARC
5
166
100
AcDbEntity
8
0
100
AcDbCircle
10
-0.50913625266818696
20
1.4560516907785206
30
0
40
0.020000000000005642
210
0
220
0
230
1
100
AcDbArc
50
109.27315323661573
51
179.91599705321528
0
SPLINE
5
167
100
AcDbEntity
8
0
100
AcDbSpline
70
0
71
3
72
10
73
6
74
0
42
0.000000001
43
0.0000000001
44
0.0000000001
40
-0
40
-0
40
-0
40
-0
40
0.071730029932289316
40
0.071730029932289316
40
0.15462051263383148
40
0.15462051263383148
40
0.15462051263383148
40
0.15462051263383148
10
-0.529136231172878
20
1.4560810133280717
30
0
10
-0.52915003238853819
20
1.4466676336903443
30
0
10
-0.52900187317224945
20
1.4281614228033415
30
0
10
-0.52417651590406367
20
1.3824773565834332
30
0
10
-0.51999879770961688
20
1.3657655407161164
30
0
10
-0.51739744443398472
20
1.3587936150212492
30
0
0
LINE
5
168
100
AcDbEntity
8
0
100
AcDbLine
10
-0.51739744443398461
20
1.3587936150212492
30
0
11
-0.51348651372873721
21
1.3485747558973666
31
0
0
ARC
5
169
100
AcDbEntity
8
0
100
AcDbCircle
10
-0.5317330429983711
20
1.3415914996728007
30
0
40
0.019537187563350721
210
0
220
0
230
1
100
AcDbArc
50
-68.280681732926411
51
20.942696091462814
0
ARC
5
170
100
AcDbEntity
8
0
100
AcDbCircle
10
0.0016759647271686864
20
0.0025082591966303163
30
0
40
1.4218749999967883
210
0
220
0
230
1
100
AcDbArc
50
111.71931826707217
51
113.28068173292891
0
ARC
5
171
100
AcDbEntity
8
0
100
AcDbCircle
10
-0.56802174867809541
20
1.3265602256192937
30
0
40
0.019537187563350846
210
0
220
0
230
1
100
AcDbArc
50
204.05730390853961
51
293.28068173292587
0
LINE
5
172
100
AcDbEntity
8
0
100
AcDbLine
10
-0.585861901088926
20
1.3185958888707696
30
0
11
-0.59032228004898202
21
1.3285871590756881
31
0
0
SPLINE
5
173
100
AcDbEntity
8
0
100
AcDbSpline
70
0
71
3
72
10
73
6
74
0
42
0.000000001
43
0.0000000001
44
0.0000000001
40
-0
40
-0
40
-0
40
-0
40
0.056942949581739261
40
0.056942949581739261
40
0.10576695216545021
40
0.10576695216545021
40
0.10576695216545021
40
0.10576695216545021
10
-0.59032228004898202
20
1.3285871590756881
30
0
10
-0.59342578382094668
20
1.335385057507549
30
0
10
-0.60232799809737148
20
1.3502088119979716
30
0
10
-0.63118209258620306
20
1.3858473606671908
30
0
10
-0.64411949740091257
20
1.3990121785550007
30
0
10
-0.65102779386767617
20
1.4058930892343635
30
0
0
ARC
5
174
100
AcDbEntity
8
0
100
AcDbCircle
10
-0.66514181493905289
20
1.391722894839202
30
0
40
0.019999999999998273
210
0
220
-0
230
1
100
AcDbArc
50
45.113791034660593
51
115.54439036963022
0
ARC
5
175
100
AcDbEntity
8
0
100
AcDbCircle
10
0
20
0
30
0
40
1.5625000000000067
210
0
220
0
230
1
100
AcDbArc
50
115.54439036963066
51
116.77404301360436
0
ARC
5
176
100
AcDbEntity
8
0
100
AcDbCircle
10
-0.694854790574017
20
1.3771285597272169
30
0
40
0.019999999999993516
210
0
220
0
230
1
100
AcDbArc
50
116.77404301360332
51
187.38039434785821
0
SPLINE
5
177
100
AcDbEntity
8
0
100
AcDbSpline
70
0
71
3
72
10
73
6
74
0
42
0.000000001
43
0.0000000001
44
0.0000000001
40
-0
40
-0
40
-0
40
-0
40
0.077471046131465215
40
0.077471046131465215
40
0.16748311239999697
40
0.16748311239999697
40
0.16748311239999697
40
0.16748311239999697
10
-0.7146890940942604
20
1.3745594346102137
30
0
10
-0.71338310451344933
20
1.3644768608386422
30
0
10
-0.71088607484828914
20
1.3466720461338926
30
0
10
-0.70015714465696166
20
1.3019851053093849
30
0
10
-0.69381259305928289
20
1.2858863776614518
30
0
10
-0.69030596758996965
20
1.279280660834373
30
0
0
LINE
5
178
100
AcDbEntity
8
0
100
AcDbLine
10
-0.69030596758996965
20
1.279280660834373
30
0
11
-0.68509466666878938
21
1.2696597043598896
31
0
0
ARC
5
179
100
AcDbEntity
8
0
100
AcDbCircle
10
-0.70227359650678567
20
1.2603545408735901
30
0
40
0.019537187563350961
210
0
220
0
230
1
100
AcDbArc
50
-60.780681732926823
51
28.442696091461755
0
ARC
5
180
100
AcDbEntity
8
0
100
AcDbCircle
10
0.001357459660424939
20
0.0023511898222239049
30
0
40
1.42187500000114
210
0
220
0
230
1
100
AcDbArc
50
119.2193182670747
51
120.78068173292675
0
ARC
5
181
100
AcDbEntity
8
0
100
AcDbCircle
10
-0.73628987231243392
20
1.2407152348803703
30
0
40
0.019537187563351086
210
0
220
0
230
1
100
AcDbArc
50
211.55730390854012
51
300.78068173291695
0
LINE
5
182
100
AcDbEntity
8
0
100
AcDbLine
10
-0.75293784519693441
20
1.2304904269739843
30
0
11
-0.75866418745195163
21
1.2398140241957329
31
0
0
SPLINE
5
183
100
AcDbEntity
8
0
100
AcDbSpline
70
0
71
3
72
10
73
6
74
0
42
0.000000001
43
0.0000000001
44
0.0000000001
40
-0
40
-0
40
-0
40
-0
40
0.057209137349659503
40
0.057209137349659503
40
0.10654866098628436
40
0.10654866098628436
40
0.10654866098628436
40
0.10654866098628436
10
-0.75866418745195163
20
1.2398140241957329
30
0
10
-0.76264697558758565
20
1.2461782893538176
30
0
10
-0.77345921227862391
20
1.2597661629882886
30
0
10
-0.80691782762568609
20
1.2914926748178155
30
0
10
-0.82142950263488335
20
1.3028024051134872
30
0
10
-0.82921180439923592
20
1.3087418917843365
30
0
0
ARC
5
184
100
AcDbEntity
8
0
100
AcDbCircle
10
-0.84134573766487342
20
1.2928432231763971
30
0
40
0.020000000000000493
210
0
220
-0
230
1
100
AcDbArc
50
52.648968432367056
51
123.05493791892955
0
ARC
5
185
100
AcDbEntity
8
0
100
AcDbCircle
10
0
20
0
30
0
40
1.562499999999996
210
0
220
0
230
1
100
AcDbArc
50
123.05493791892984
51
124.27673879907661
0
ARC
5
186
100
AcDbEntity
8
0
100
AcDbCircle
10
-0.86872153037232736
20
1.2746094118072226
30
0
40
0.019999999999997627
210
0
220
0
230
1
100
AcDbArc
50
124.27673879906011
51
194.84541235255764
0
SPLINE
5
187
100
AcDbEntity
8
0
100
AcDbSpline
70
0
71
3
72
10
73
6
74
0
42
0.000000001
43
0.0000000001
44
0.0000000001
40
-0
40
-0
40
-0
40
-0
40
0.07252211329485489
40
0.07252211329485489
40
0.15624920676058215
40
0.15624920676058215
40
0.15624920676058215
40
0.15624920676058215
10
-0.88805394277020511
20
1.2694851722657499
30
0
10
-0.88561548685470892
20
1.2602855173974346
30
0
10
-0.88068059541279919
20
1.2423575485185558
30
0
10
-0.86413592056561239
20
1.1991978438758271
30
0
10
-0.85571548932383412
20
1.1839983425585079
30
0
10
-0.85135671121852485
20
1.1778788598632006
30
0
0
LINE
5
188
100
AcDbEntity
8
0
100
AcDbLine
10
-0.85135671121852496
20
1.1778788598632006
30
0
11
-0.84493420688501863
21
1.169020423270827
31
0
0
ARC
5
189
100
AcDbEntity
8
0
100
AcDbCircle
10
-0.86075160103894943
20
1.1575525664499229
30
0
40
0.019537187563351082
210
0
220
0
230
1
100
AcDbArc
50
-53.280681732925665
51
35.942696091462395
0
ARC
5
190
100
AcDbEntity
8
0
100
AcDbCircle
10
0.0010621811123283397
20
0.0021538909502811067
30
0
40
1.4218749999986302
210
0
220
0
230
1
100
AcDbArc
50
126.71931826707323
51
128.28068173292786
0
ARC
5
191
100
AcDbEntity
8
0
100
AcDbCircle
10
-0.89191341906039445
20
1.1336412624875787
30
0
40
0.019537187563350877
210
0
220
0
230
1
100
AcDbArc
50
219.05730390853924
51
308.28068173293008
0
LINE
5
192
100
AcDbEntity
8
0
100
AcDbLine
10
-0.90708436098682099
20
1.1213309327214618
30
0
11
-0.91397868723317433
21
1.129827327626588
31
0
0
SPLINE
5
193
100
AcDbEntity
8
0
100
AcDbSpline
70
0
71
3
72
10
73
6
74
0
42
0.000000001
43
0.0000000001
44
0.0000000001
40
-0
40
-0
40
-0
40
-0
40
0.057448289840110973
40
0.057448289840110973
40
0.10606588401395739
40
0.10606588401395739
40
0.10606588401395739
40
0.10606588401395739
10
-0.91397868723317433
20
1.129827327626588
30
0
10
-0.91877808485785117
20
1.135641491327986
30
0
10
-0.9313237709595712
20
1.1477435817620898
30
0
10
-0.96842437517458224
20
1.1746520113150369
30
0
10
-0.984287743415724
20
1.184010321659972
30
0
10
-0.99319171556765662
20
1.1891132243877895
30
0
0
ARC
5
194
100
AcDbEntity
8
0
100
AcDbCircle
10
-1.0031364036710788
20
1.1717608995139965
30
0
40
0.020000000000000386
210
0
220
-0
230
1
100
AcDbArc
50
60.182802227155605
51
130.56660339130349
0
ARC
5
195
100
AcDbEntity
8
0
100
AcDbCircle
10
0
20
0
30
0
40
1.5624999999999989
210
0
220
0
230
1
100
AcDbArc
50
130.56660339130357
51
131.7811959768915
0
ARC
5
196
100
AcDbEntity
8
0
100
AcDbCircle
10
-1.0277488929560972
20
1.1502340905344077
30
0
40
0.019999999999999084
210
0
220
0
230
1
100
AcDbArc
50
131.7811959768797
51
202.31191703402777
0
SPLINE
5
197
100
AcDbEntity
8
0
100
AcDbSpline
70
0
71
3
72
10
73
6
74
0
42
0.000000001
43
0.0000000001
44
0.0000000001
40
-0
40
-0
40
-0
40
-0
40
0.079336495357646419
40
0.079336495357646419
40
0.173524404312384
40
0.173524404312384
40
0.173524404312384
40
0.173524404312384
10
-1.0462515084506032
20
1.1426411187932213
30
0
10
-1.0422987540690436
20
1.1330090146718448
30
0
10
-1.0350965594732222
20
1.1160976036351602
30
0
10
-1.0133014841637213
20
1.0758705589032043
30
0
10
-1.0029352347568627
20
1.0618439071857211
30
0
10
-0.99779405244446318
20
1.0563232250362387
30
0
0
LINE
5
198
100
AcDbEntity
8
0
100
AcDbLine
10
-0.9977940524444634
20
1.0563232250362387
30
0
11
-0.99027023552843241
21
1.0483788786320936
31
0
0
ARC
5
199
100
AcDbEntity
8
0
100
AcDbCircle
10
-1.0044554539989139
20
1.0349445466862814
30
0
40
0.01953718756335094
210
0
220
0
230
1
100
AcDbArc
50
-45.780681732925927
51
43.442696091462018
0
ARC
5
200
100
AcDbEntity
8
0
100
AcDbCircle
10
0.00079518138662896761
20
0.0019197384095509221
30
0
40
1.4218750000007108
210
0
220
0
230
1
100
AcDbArc
50
134.21931826707436
51
135.78068173292618
0
ARC
5
201
100
AcDbEntity
8
0
100
AcDbCircle
10
-1.0322296268901205
20
1.0071703737950748
30
0
40
0.019537187563350919
210
0
220
0
230
1
100
AcDbArc
50
226.55730390854026
51
315.78068173296873
0
LINE
5
202
100
AcDbEntity
8
0
100
AcDbLine
10
-1.045663958835932
20
0.99298515532459286
30
0
11
-1.0536083052400769
21
1.0005089722406235
31
0
0
SPLINE
5
203
100
AcDbEntity
8
0
100
AcDbSpline
70
0
71
3
72
10
73
6
74
0
42
0.000000001
43
0.0000000001
44
0.0000000001
40
-0
40
-0
40
-0
40
-0
40
0.057656666709227415
40
0.057656666709227415
40
0.10628206690373254
40
0.10628206690373254
40
0.10628206690373254
40
0.10628206690373254
10
-1.0536083052400769
20
1.0005089722406235
30
0
10
-1.0591455561715799
20
1.00566558437252
30
0
10
-1.0732140825587335
20
1.0160572535272869
30
0
10
-1.1135532536972577
20
1.0378960991309829
30
0
10
-1.1304607723278119
20
1.0450871994693889
30
0
10
-1.1401417605661692
20
1.0490548314637533
30
0
0
ARC
5
204
100
AcDbEntity
8
0
100
AcDbCircle
10
-1.147726251606658
20
1.030548737990068
30
0
40
0.020000000000000757
210
0
220
-0
230
1
100
AcDbArc
50
67.714342101313861
51
138.07918523037748
0
ARC
5
205
100
AcDbEntity
8
0
100
AcDbCircle
10
0
20
0
30
0
40
1.562499999999998
210
0
220
0
230
1
100
AcDbArc
50
138.07918523037799
51
139.28734020445987
0
ARC
5
206
100
AcDbEntity
8
0
100
AcDbCircle
10
-1.1691999347335864
20
1.0061201531720636
30
0
40
0.019999999999997818
210
0
220
0
230
1
100
AcDbArc
50
139.28734020445796
51
209.78086656329805
0
SPLINE
5
207
100
AcDbEntity
8
0
100
AcDbSpline
70
0
71
3
72
10
73
6
74
0
42
0.000000001
43
0.0000000001
44
0.0000000001
40
-0
40
-0
40
-0
40
-0
40
0.08123823825765325
40
0.08123823825765325
40
0.17819832355798301
40
0.17819832355798301
40
0.17819832355798301
40
0.17819832355798301
10
-1.1865585620374768
20
0.99618647016299655
30
0
10
-1.1812633198643328
20
0.98693329233707627
30
0
10
-1.1719399652626354
20
0.97115933354043749
30
0
10
-1.1450952841742137
20
0.93411152046087409
30
0
10
-1.1329507433819452
20
0.9215129577039568
30
0
10
-1.1271124077593087
20
0.91669360696696645
30
0
0
LINE
5
208
100
AcDbEntity
8
0
100
AcDbLine
10
-1.1271124077593087
20
0.91669360696696667
30
0
11
-1.1186160128541827
21
0.90979928072061322
31
0
0
ARC
5
209
100
AcDbEntity
8
0
100
AcDbCircle
10
-1.1309263426202991
20
0.89462833879418646
30
0
40
0.019537187563350732
210
0
220
0
230
1
100
AcDbArc
50
-38.280681732925274
51
50.942696091462196
0
ARC
5
210
100
AcDbEntity
8
0
100
AcDbCircle
10
0.00056102891958454727
20
0.0016527386195180596
30
0
40
1.4218750000018663
210
0
220
0
230
1
100
AcDbArc
50
141.71931826707512
51
143.28068173292601
0
ARC
5
211
100
AcDbEntity
8
0
100
AcDbCircle
10
-1.1548376465826429
20
0.86346652077274122
30
0
40
0.019537187563351141
210
0
220
0
230
1
100
AcDbArc
50
234.05730390853995
51
323.28068173294571
0
LINE
5
212
100
AcDbEntity
8
0
100
AcDbLine
10
-1.1663055034035463
20
0.84764912661880998
30
0
11
-1.1751639399959199
21
0.85407163095231609
31
0
0
SPLINE
5
213
100
AcDbEntity
8
0
100
AcDbSpline
70
0
71
3
72
10
73
6
74
0
42
0.000000001
43
0.0000000001
44
0.0000000001
40
-0
40
-0
40
-0
40
-0
40
0.057821551928962669
40
0.057821551928962669
40
0.10624052759667982
40
0.10624052759667982
40
0.10624052759667982
40
0.10624052759667982
10
-1.1751639399959199
20
0.85407163095231609
30
0
10
-1.181344516593722
20
0.85847392495231334
30
0
10
-1.196693423726255
20
0.86696050521947288
30
0
10
-1.2395029339684869
20
0.88331723817922803
30
0
10
-1.2571913838770616
20
0.88824626818395225
30
0
10
-1.2675284322905684
20
0.8909692131868715
30
0
0
ARC
5
214
100
AcDbEntity
8
0
100
AcDbCircle
10
-1.27262296849768
20
0.87162895205020519
30
0
40
0.020000000000000424
210
0
220
-0
230
1
100
AcDbArc
50
75.242602010358269
51
145.59246597363776
0
ARC
5
215
100
AcDbEntity
8
0
100
AcDbCircle
10
0
20
0
30
0
40
1.5624999999999958
210
0
220
0
230
1
100
AcDbArc
50
145.59246597363747
51
146.7950685519356
0
ARC
5
216
100
AcDbEntity
8
0
100
AcDbCircle
10
-1.2906362526024284
20
0.84472736043551844
30
0
40
0.019999999999995959
210
0
220
0
230
1
100
AcDbArc
50
146.79506855193321
51
217.25324383892453
0
SPLINE
5
217
100
AcDbEntity
8
0
100
AcDbSpline
70
0
71
3
72
10
73
6
74
0
42
0.000000001
43
0.0000000001
44
0.0000000001
40
-0
40
-0
40
-0
40
-0
40
0.081469605396833136
40
0.081469605396833136
40
0.17875975281050815
40
0.17875975281050815
40
0.17875975281050815
40
0.17875975281050815
10
-1.3065556072451174
20
0.8326205793703344
30
0
10
-1.300083594935364
20
0.82411045114912629
30
0
10
-1.2887567570503706
20
0.80964797821211265
30
0
10
-1.2572534578131627
20
0.77634368237819973
30
0
10
-1.2435340504574348
20
0.76540612781390527
30
0
10
-1.2370991042498032
20
0.76137910713319068
30
0
0
LINE
5
218
100
AcDbEntity
8
0
100
AcDbLine
10
-1.2370991042498034
20
0.76137910713319068
30
0
11
-1.227775507028054
21
0.7556527648781739
31
0
0
ARC
5
219
100
AcDbEntity
8
0
100
AcDbCircle
10
-1.2380003149344401
20
0.73900479199367297
30
0
40
0.019537187563351294
210
0
220
0
230
1
100
AcDbArc
50
-30.780681732925075
51
58.442696091460576
0
ARC
5
220
100
AcDbEntity
8
0
100
AcDbCircle
10
0.00036373012185832263
20
0.0013574600219153918
30
0
40
1.4218749999989888
210
0
220
0
230
1
100
AcDbArc
50
149.21931826707342
51
150.78068173292777
0
ARC
5
221
100
AcDbEntity
8
0
100
AcDbCircle
10
-1.2576396209276588
20
0.70498851618802427
30
0
40
0.019537187563351203
210
0
220
0
230
1
100
AcDbArc
50
241.55730390854055
51
330.78068173292007
0
LINE
5
222
100
AcDbEntity
8
0
100
AcDbLine
10
-1.2669447844139576
20
0.68780958635002754
30
0
11
-1.2765657408884412
21
0.6930208872712077
31
0
0
SPLINE
5
223
100
AcDbEntity
8
0
100
AcDbSpline
70
0
71
3
72
10
73
6
74
0
42
0.000000001
43
0.0000000001
44
0.0000000001
40
-0
40
-0
40
-0
40
-0
40
0.057951289510836654
40
0.057951289510836654
40
0.1064739813701213
40
0.1064739813701213
40
0.1064739813701213
40
0.1064739813701213
10
-1.2765657408884414
20
0.6930208872712077
30
0
10
-1.2832830948451244
20
0.69658677498446564
30
0
10
-1.2996458551954277
20
0.70300895196678204
30
0
10
-1.3443128180349333
20
0.71364605373924683
30
0
10
-1.3625369662076041
20
0.71622444969362054
30
0
10
-1.3731551765918197
20
0.71757212424350281
30
0
0
ARC
5
224
100
AcDbEntity
8
0
100
AcDbCircle
10
-1.3756733959434579
20
0.69773129333103823
30
0
40
0.019999999999999452
210
0
220
-0
230
1
100
AcDbArc
50
82.766633958383267
51
153.10621614749471
0
ARC
5
225
100
AcDbEntity
8
0
100
AcDbCircle
10
0
20
0
30
0
40
1.5625000000000024
210
0
220
0
230
1
100
AcDbArc
50
153.10621614749493
51
154.30425108563429
0
ARC
5
226
100
AcDbEntity
8
0
100
AcDbCircle
10
-1.3899609323140822
20
0.66881601105279864
30
0
40
0.020000000000000136
210
0
220
0
230
1
100
AcDbArc
50
154.30425108563304
51
224.72998311234372
0
SPLINE
5
227
100
AcDbEntity
8
0
100
AcDbSpline
70
0
71
3
72
10
73
6
74
0
42
0.000000001
43
0.0000000001
44
0.0000000001
40
-0
40
-0
40
-0
40
-0
40
0.081578011462476147
40
0.081578011462476147
40
0.17901088526027853
40
0.17901088526027853
40
0.17901088526027853
40
0.17901088526027853
10
-1.4041695580597156
20
0.65474067963856464
30
0
10
-1.3966351909504731
20
0.64713496156807049
30
0
10
-1.3834918107694487
20
0.63424176464756044
30
0
10
-1.347853108008221
20
0.60527160168091343
30
0
10
-1.3327926257972342
20
0.59619662411999874
30
0
10
-1.3258722390449202
20
0.59303719968838364
30
0
0
LINE
5
228
100
AcDbEntity
8
0
100
AcDbLine
10
-1.3258722390449202
20
0.59303719968838375
30
0
11
-1.3158809688400017
21
0.58857682072832773
31
0
0
ARC
5
229
100
AcDbEntity
8
0
100
AcDbCircle
10
-1.3238453055885251
20
0.57073666831749692
30
0
40
0.019537187563351169
210
0
220
0
230
1
100
AcDbArc
50
-23.280681732926407
51
65.942696091462437
0
ARC
5
230
100
AcDbEntity
8
0
100
AcDbCircle
10
0.00020666083771601532
20
0.0010389549107876377
30
0
40
1.4218750000006466
210
0
220
0
230
1
100
AcDbArc
50
156.71931826707461
51
158.28068173292715
0
ARC
5
231
100
AcDbEntity
8
0
100
AcDbCircle
10
-1.3388765796420323
20
0.53444796263777283
30
0
40
0.019537187563351047
210
0
220
0
230
1
100
AcDbArc
50
249.05730390854043
51
338.28068173292127
0
LINE
5
232
100
AcDbEntity
8
0
100
AcDbLine
10
-1.3458598358665974
20
0.51620143336813817
30
0
11
-1.3560786949904797
21
0.52011236407338557
31
0
0
SPLINE
5
233
100
AcDbEntity
8
0
100
AcDbSpline
70
0
71
3
72
10
73
6
74
0
42
0.000000001
43
0.0000000001
44
0.0000000001
40
-0
40
-0
40
-0
40
-0
40
0.058078921836863626
40
0.058078921836863626
40
0.096630596128142954
40
0.096630596128142954
40
0.096630596128142954
40
0.096630596128142954
10
-1.3560786949904799
20
0.52011236407338557
30
0
10
-1.3632197156698416
20
0.52277680978732866
30
0
10
-1.3803150629802512
20
0.52701303540794986
30
0
10
-1.4217252582376008
20
0.53127966356196832
30
0
10
-1.4386340219209497
20
0.53192794610556315
30
0
10
-1.4552011722083502
20
0.5318453646441087
30
0
0
ARC
5
234
100
AcDbEntity
8
0
100
AcDbCircle
10
-1.4551014804278066
20
0.51184561310692989
30
0
40
0.019999999999999751
210
0
220
0
230
1
100
AcDbArc
50
90.285597096536591
51
160.62019839116024
0
ARC
5
235
100
AcDbEntity
8
0
100
AcDbCircle
10
0
20
0
30
0
40
1.5625000000000009
210
0
220
0
230
1
100
AcDbArc
50
160.62019839116036
51
161.81473288813106
0
ARC
5
236
100
AcDbEntity
8
0
100
AcDbCircle
10
-1.4654557238201327
20
0.48139980424051754
30
0
40
0.02000000000000194
210
0
220
0
230
1
100
AcDbArc
50
161.81473288813191
51
232.21190281631323
0
SPLINE
5
237
100
AcDbEntity
8
0
100
AcDbSpline
70
0
71
3
72
10
73
6
74
0
42
0.000000001
43
0.0000000001
44
0.0000000001
40
-0
40
-0
40
-0
40
-0
40
0.12604166010396892
40
0.12604166010396892
40
0.31589487338339267
40
0.31589487338339267
40
0.31589487338339267
40
0.31589487338339267
10
-1.4777105816399543
20
0.46559415778692476
30
0
10
-1.4646386005505347
20
0.4554588387321481
30
0
10
-1.4508057607530456
20
0.44566074665377914
30
0
10
-1.4153470258988854
20
0.42383018767388247
30
0
10
-1.3992019588535702
20
0.41678211806012405
30
0
10
-1.3919128791957525
20
0.4145482613421213
30
0
0
LINE
5
238
100
AcDbEntity
8
0
100
AcDbLine
10
-1.3919128791957525
20
0.41454826134212136
30
0
11
-1.3814248894109737
21
0.41143016399768351
31
0
0
ARC
5
239
100
AcDbEntity
8
0
100
AcDbCircle
10
-1.3869924829917368
20
0.39270308201449677
30
0
40
0.019537187563350843
210
0
220
0
230
1
100
AcDbArc
50
-15.780681732926366
51
73.442696091462082
0
ARC
5
240
100
AcDbEntity
8
0
100
AcDbCircle
10
9.2508559517338293e-05
20
0.00070267300044821505
30
0
40
1.4218749999992228
210
0
220
0
230
1
100
AcDbArc
50
164.21931826707322
51
165.78068173292667
0
ARC
5
241
100
AcDbEntity
8
0
100
AcDbCircle
10
-1.3971585358390193
20
0.35476285627600707
30
0
40
0.019537187563350874
210
0
220
0
230
1
100
AcDbArc
50
256.55730390853961
51
345.78068173296992
0
LINE
5
242
100
AcDbEntity
8
0
100
AcDbLine
10
-1.4017003993517241
20
0.33576093074943181
30
0
11
-1.4123423136121926
21
0.33830457413006504
31
0
0
SPLINE
5
243
100
AcDbEntity
8
0
100
AcDbSpline
70
0
71
3
72
10
73
6
74
0
42
0.000000001
43
0.0000000001
44
0.0000000001
40
-0
40
-0
40
-0
40
-0
40
0.058150358401573572
40
0.058150358401573572
40
0.096782781448725139
40
0.096782781448725139
40
0.096782781448725139
40
0.096782781448725139
10
-1.4123423136121926
20
0.33830457413006498
30
0
10
-1.4197791578391121
20
0.34001623764848704
30
0
10
-1.4373023636381006
20
0.34198554250418789
30
0
10
-1.4789711824427527
20
0.34080285540524291
30
0
10
-1.4959755293046653
20
0.33921417579875746
30
0
10
-1.5122534418851372
20
0.33698472260088758
30
0
0
ARC
5
244
100
AcDbEntity
8
0
100
AcDbCircle
10
-1.5095395408287804
20
0.31716970957903284
30
0
40
0.019999999999999126
210
0
220
0
230
1
100
AcDbArc
50
97.79881333503387
51
168.13417171438238
0
ARC
5
245
100
AcDbEntity
8
0
100
AcDbCircle
10
0
20
0
30
0
40
1.5625000000000036
210
0
220
0
230
1
100
AcDbArc
50
168.1341717143824
51
169.3263365052664
0
ARC
5
246
100
AcDbEntity
8
0
100
AcDbCircle
10
-1.5158117205532549
20
0.2856940283474389
30
0
40
0.020000000000002759
210
0
220
0
230
1
100
AcDbArc
50
169.32633650526691
51
239.69965255280138
0
SPLINE
5
247
100
AcDbEntity
8
0
100
AcDbSpline
70
0
71
3
72
10
73
6
74
0
42
0.000000001
43
0.0000000001
44
0.0000000001
40
-0
40
-0
40
-0
40
-0
40
0.12507699276971984
40
0.12507699276971984
40
0.3133269408625744
40
0.3133269408625744
40
0.3133269408625744
40
0.3133269408625744
10
-1.5259023777436671
20
0.26842617852571621
30
0
10
-1.5117303913440607
20
0.26014462303721692
30
0
10
-1.4966131283479709
20
0.25216026987782797
30
0
10
-1.4585631079243395
20
0.23511834260040901
30
0
10
-1.4416178806540578
20
0.23023105097313443
30
0
10
-1.4340910510393943
20
0.22896628731598978
30
0
0
LINE
5
248
100
AcDbEntity
8
0
100
AcDbLine
10
-1.4340910510393943
20
0.22896628731598978
30
0
11
-1.4232857940877941
21
0.22724382309723373
31
0
0
ARC
5
249
100
AcDbEntity
8
0
100
AcDbCircle
10
-1.4263613814310017
20
0.20795023710655106
30
0
40
0.019537187563351356
210
0
220
0
230
1
100
AcDbArc
50
-8.2806817329252542
51
80.9426960914614
0
ARC
5
250
100
AcDbEntity
8
0
100
AcDbCircle
10
2.3226471549913714e-05
20
0.00035436816551878843
30
0
40
1.4218750000022657
210
0
220
0
230
1
100
AcDbArc
50
171.71931826707521
51
173.28068173292561
0
ARC
5
251
100
AcDbEntity
8
0
100
AcDbCircle
10
-1.4314882690892792
20
0.16900765909069962
30
0
40
0.01953718756335078
210
0
220
0
230
1
100
AcDbArc
50
264.05730390853842
51
353.2806817329477
0
LINE
5
252
100
AcDbEntity
8
0
100
AcDbLine
10
-1.4335110273461791
20
0.14957546552127229
30
0
11
-1.4443939106397412
21
0.15070829913381728
31
0
0
SPLINE
5
253
100
AcDbEntity
8
0
100
AcDbSpline
70
0
71
3
72
10
73
6
74
0
42
0.000000001
43
0.0000000001
44
0.0000000001
40
-0
40
-0
40
-0
40
-0
40
0.058187338914793586
40
0.058187338914793586
40
0.096861703245349096
40
0.096861703245349096
40
0.096861703245349096
40
0.096861703245349096
10
-1.4443939106397412
20
0.1507082991338172
30
0
10
-1.4519953796095928
20
0.1514350780732194
30
0
10
-1.4696366942410537
20
0.15109924256748258
30
0
10
-1.5108233785530512
20
0.14447994533803946
30
0
10
-1.5275523929292507
20
0.14066247843131591
30
0
10
-1.5433316730827937
20
0.13634403714934828
30
0
0
ARC
5
254
100
AcDbEntity
8
0
100
AcDbCircle
10
-1.5380522572419111
20
0.11705342367079209
30
0
40
0.020000000000000299
210
0
220
0
230
1
100
AcDbArc
50
105.30580606827672
51
175.64789579141353
0
ARC
5
255
100
AcDbEntity
8
0
100
AcDbCircle
10
0
20
0
30
0
40
1.562499999999998
210
0
220
0
230
1
100
AcDbArc
50
175.64789579141353
51
176.8388648031553
0
ARC
5
256
100
AcDbEntity
8
0
100
AcDbCircle
10
-1.5401529308503528
20
0.08505997644651489
30
0
40
0.019999999999992898
210
0
220
0
230
1
100
AcDbArc
50
176.83886480313927
51
247.19367682986447
0
SPLINE
5
257
100
AcDbEntity
8
0
100
AcDbSpline
70
0
71
3
72
10
73
6
74
0
42
0.000000001
43
0.0000000001
44
0.0000000001
40
-0
40
-0
40
-0
40
-0
40
0.1246205875923818
40
0.1246205875923818
40
0.31211173776383311
40
0.31211173776383311
40
0.31211173776383311
40
0.31211173776383311
10
-1.5479052772710862
20
0.06662356885249307
30
0
10
-1.5328294508441853
20
0.060284317105959884
30
0
10
-1.5167364377574173
20
0.054313537294659549
30
0
10
-1.476764076428005
20
0.042374076647168871
30
0
10
-1.4593167311512516
20
0.039738278856450135
30
0
10
-1.4516850743616028
20
0.039466636638639224
30
0
0
LINE
5
258
100
AcDbEntity
8
0
100
AcDbLine
10
-1.4516850743616028
20
0.039466636638639224
30
0
11
-1.4407474311854056
21
0.039169277385904581
31
0
0
ARC
5
259
100
AcDbEntity
8
0
100
AcDbCircle
10
-1.4412783881389013
20
0.019639305993219735
30
0
40
0.019537187563350995
210
0
220
0
230
1
100
AcDbArc
50
-0.78068173292623
51
88.442696091460874
0
ARC
5
260
100
AcDbEntity
8
0
100
AcDbCircle
10
0
20
0
30
0
40
1.4218749999999998
210
0
220
0
230
1
100
AcDbArc
50
179.21931826707376
51
180.78068173292576
0
ARC
5
261
100
AcDbEntity
8
0
100
AcDbCircle
10
-1.4412783881389013
20
-0.019639305993219742
30
0
40
0.019537187563350999
210
0
220
0
230
1
100
AcDbArc
50
-88.44269609146086
51
0.78068173295143695
0
LINE
5
262
100
AcDbEntity
8
0
100
AcDbLine
10
-1.4407474311854056
20
-0.039169277385904672
30
0
11
-1.4516850743616028
21
-0.039466636638639252
31
0
0
SPLINE
5
263
100
AcDbEntity
8
0
100
AcDbSpline
70
0
71
3
72
10
73
6
74
0
42
0.000000001
43
0.0000000001
44
0.0000000001
40
-0
40
-0
40
-0
40
-0
40
0.058190051469672537
40
0.058190051469672537
40
0.096867495175888829
40
0.096867495175888829
40
0.096867495175888829
40
0.096867495175888829
10
-1.4516850743616028
20
-0.039466636638639224
30
0
10
-1.4593167311512432
20
-0.039738278856449809
30
0
10
-1.4767640764279932
20
-0.042374076647164478
30
0
10
-1.5167364377573955
20
-0.054313537294653345
30
0
10
-1.5328294508440787
20
-0.060284317105915648
30
0
10
-1.5479052772710822
20
-0.066623568852491252
30
0
0
ARC
5
264
100
AcDbEntity
8
0
100
AcDbCircle
10
-1.5401529308503485
20
-0.085059976446513849
30
0
40
0.019999999999999903
210
0
220
0
230
1
100
AcDbArc
50
112.80632317013431
51
183.16113519684444
0
ARC
5
265
100
AcDbEntity
8
0
100
AcDbCircle
10
0
20
0
30
0
40
1.5624999999999998
210
0
220
0
230
1
100
AcDbArc
50
183.16113519684444
51
184.35210420736917
0
ARC
5
266
100
AcDbEntity
8
0
100
AcDbCircle
10
-1.5380522572443978
20
-0.11705342363811425
30
0
40
0.020000000000003064
210
0
220
0
230
1
100
AcDbArc
50
184.35210420737019
51
254.6941939184774
0
SPLINE
5
267
100
AcDbEntity
8
0
100
AcDbSpline
70
0
71
3
72
10
73
6
74
0
42
0.000000001
43
0.0000000001
44
0.0000000001
40
-0
40
-0
40
-0
40
-0
40
0.12465970969106505
40
0.12465970969106505
40
0.31221590864148713
40
0.31221590864148713
40
0.31221590864148713
40
0.31221590864148713
10
-1.5433316730897397
20
-0.13634403711544998
30
0
10
-1.5275523930644961
20
-0.14066247836622991
30
0
10
-1.5108233785427763
20
-0.14447994531591032
30
0
10
-1.4696366941764478
20
-0.15109924256020424
30
0
10
-1.4519953795242941
20
-0.15143507806792239
30
0
10
-1.4443939105453538
20
-0.15070829912765041
30
0
0
LINE
5
268
100
AcDbEntity
8
0
100
AcDbLine
10
-1.4443939105453538
20
-0.15070829912765041
30
0
11
-1.4335110272517919
21
-0.1495754655151055
31
0
0
ARC
5
269
100
AcDbEntity
8
0
100
AcDbCircle
10
-1.431488268994892
20
-0.16900765908453297
30
0
40
0.019537187563350999
210
0
220
-0
230
1
100
AcDbArc
50
6.7193182670734153
51
95.942696091461514
0
ARC
5
270
100
AcDbEntity
8
0
100
AcDbCircle
10
2.3226562511972244e-05
20
-0.00035436815978404941
30
0
40
1.4218749999988129
210
0
220
0
230
1
100
AcDbArc
50
186.71931826707299
51
188.28068173292715
0
ARC
5
271
100
AcDbEntity
8
0
100
AcDbCircle
10
-1.4263613813366129
20
-0.20795023710038407
30
0
40
0.01953718756335104
210
0
220
0
230
1
100
AcDbArc
50
-80.942696091461997
51
8.2806817329501872
0
LINE
5
272
100
AcDbEntity
8
0
100
AcDbLine
10
-1.4232857939934056
20
-0.22724382309106658
30
0
11
-1.4340910509450058
21
-0.22896628730982291
31
0
0
SPLINE
5
273
100
AcDbEntity
8
0
100
AcDbSpline
70
0
71
3
72
10
73
6
74
0
42
0.000000001
43
0.0000000001
44
0.0000000001
40
-0
40
-0
40
-0
40
-0
40
0.058158519366842652
40
0.058158519366842652
40
0.09680019117706673
40
0.09680019117706673
40
0.09680019117706673
40
0.09680019117706673
10
-1.434091050945006
20
-0.22896628730982291
30
0
10
-1.4416178805686928
20
-0.23023105096848212
30
0
10
-1.4585631078583974
20
-0.23511834260303804
30
0
10
-1.4966131283300521
20
-0.25216026990853579
30
0
10
-1.5117303914557794
20
-0.26014462314715359
30
0
10
-1.5259023777392826
20
-0.26842617857214585
30
0
0
ARC
5
274
100
AcDbEntity
8
0
100
AcDbCircle
10
-1.5158117205449273
20
-0.28569402839156627
30
0
40
0.020000000000001406
210
0
220
0
230
1
100
AcDbArc
50
120.30034746027962
51
190.67366349640122
0
ARC
5
275
100
AcDbEntity
8
0
100
AcDbCircle
10
0
20
0
30
0
40
1.5624999999999929
210
0
220
0
230
1
100
AcDbArc
50
190.67366349640164
51
191.86582828365377
0
ARC
5
276
100
AcDbEntity
8
0
100
AcDbCircle
10
-1.5095395408396475
20
-0.31716970952729123
30
0
40
0.019999999999991719
210
0
220
0
230
1
100
AcDbArc
50
191.86582828365508
51
262.2011866387831
0
SPLINE
5
277
100
AcDbEntity
8
0
100
AcDbSpline
70
0
71
3
72
10
73
6
74
0
42
0.000000001
43
0.0000000001
44
0.0000000001
40
-0
40
-0
40
-0
40
-0
40
0.12519567028694109
40
0.12519567028694109
40
0.31364289960735525
40
0.31364289960735525
40
0.31364289960735525
40
0.31364289960735525
10
-1.5122534419050591
20
-0.33698472254790662
30
0
10
-1.4959755295897019
20
-0.33921417571704426
30
0
10
-1.4789711824255671
20
-0.34080285537099375
30
0
10
-1.4373023635103401
20
-0.34198554248510715
30
0
10
-1.4197791576698322
20
-0.34001623762798305
30
0
10
-1.4123423134250317
20
-0.33830457410544518
30
0
0
LINE
5
278
100
AcDbEntity
8
0
100
AcDbLine
10
-1.4123423134250317
20
-0.33830457410544518
30
0
11
-1.4017003991645633
21
-0.33576093072481189
31
0
0
ARC
5
279
100
AcDbEntity
8
0
100
AcDbCircle
10
-1.3971585356518583
20
-0.35476285625138709
30
0
40
0.019537187563350829
210
0
220
-0
230
1
100
AcDbArc
50
14.219318267072889
51
103.44269609146104
0
ARC
5
280
100
AcDbEntity
8
0
100
AcDbCircle
10
9.2508748028662086e-05
20
-0.00070267297546041665
30
0
40
1.4218750000006219
210
0
220
0
230
1
100
AcDbArc
50
194.2193182670737
51
195.78068173292601
0
ARC
5
281
100
AcDbEntity
8
0
100
AcDbCircle
10
-1.3869924828045757
20
-0.39270308198987641
30
0
40
0.019537187563351308
210
0
220
0
230
1
100
AcDbArc
50
-73.442696091460419
51
15.780681732941531
0
LINE
5
282
100
AcDbEntity
8
0
100
AcDbLine
10
-1.3814248892238119
20
-0.41143016397306337
30
0
11
-1.39191287900859
21
-0.41454826131750111
31
0
0
SPLINE
5
283
100
AcDbEntity
8
0
100
AcDbSpline
70
0
71
3
72
10
73
6
74
0
42
0.000000001
43
0.0000000001
44
0.0000000001
40
-0
40
-0
40
-0
40
-0
40
0.058092592343007517
40
0.058092592343007517
40
0.09665968670242428
40
0.09665968670242428
40
0.09665968670242428
40
0.09665968670242428
10
-1.39191287900859
20
-0.41454826131750117
30
0
10
-1.399201958683955
20
-0.41678211804088022
30
0
10
-1.4153470257656433
20
-0.42383018767410108
30
0
10
-1.4508057607059834
20
-0.44566074672097
30
0
10
-1.4646386007433732
20
-0.45545883899283623
30
0
10
-1.4777105816154472
20
-0.4655941578884209
30
0
0
ARC
5
284
100
AcDbEntity
8
0
100
AcDbCircle
10
-1.4654557237885903
20
-0.48139980433655694
30
0
40
0.019999999999998817
210
0
220
0
230
1
100
AcDbArc
50
127.78809720919283
51
198.1852671156239
0
ARC
5
285
100
AcDbEntity
8
0
100
AcDbCircle
10
0
20
0
30
0
40
1.562500000000004
210
0
220
0
230
1
100
AcDbArc
50
198.18526711562379
51
199.37980160661476
0
ARC
5
286
100
AcDbEntity
8
0
100
AcDbCircle
10
-1.4551014804476825
20
-0.51184561305042875
30
0
40
0.020000000000003158
210
0
220
0
230
1
100
AcDbArc
50
199.3798016066076
51
269.71440286513086
0
SPLINE
5
287
100
AcDbEntity
8
0
100
AcDbSpline
70
0
71
3
72
10
73
6
74
0
42
0.000000001
43
0.0000000001
44
0.0000000001
40
-0
40
-0
40
-0
40
-0
40
0.12624325042233731
40
0.12624325042233731
40
0.31643140670728248
40
0.31643140670728248
40
0.31643140670728248
40
0.31643140670728248
10
-1.4552011722416065
20
-0.53184536458754061
30
0
10
-1.4386340223617891
20
-0.53192794605805049
30
0
10
-1.4217252582123752
20
-0.53127966352569533
30
0
10
-1.3803150627907055
20
-0.52701303537268773
30
0
10
-1.3632197154189496
20
-0.52277680974194984
30
0
10
-1.3560786947137484
20
-0.52011236401836125
30
0
0
LINE
5
288
100
AcDbEntity
8
0
100
AcDbLine
10
-1.3560786947137484
20
-0.52011236401836125
30
0
11
-1.3458598355898652
21
-0.51620143331311352
31
0
0
ARC
5
289
100
AcDbEntity
8
0
100
AcDbCircle
10
-1.3388765793652997
20
-0.53444796258274785
30
0
40
0.01953718756335069
210
0
220
-0
230
1
100
AcDbArc
50
21.719318267073277
51
110.94269609146114
0
ARC
5
290
100
AcDbEntity
8
0
100
AcDbCircle
10
0.00020666111410472601
20
-0.0010389548558857105
30
0
40
1.4218750000002824
210
0
220
0
230
1
100
AcDbArc
50
201.71931826707345
51
203.28068173292618
0
ARC
5
291
100
AcDbEntity
8
0
100
AcDbCircle
10
-1.3238453053117922
20
-0.57073666826247171
30
0
40
0.019537187563351165
210
0
220
0
230
1
100
AcDbArc
50
-65.942696091460789
51
23.280681732935296
0
LINE
5
292
100
AcDbEntity
8
0
100
AcDbLine
10
-1.3158809685632682
20
-0.58857682067330264
30
0
11
-1.3258722387681878
21
-0.5930371996333591
31
0
0
SPLINE
5
293
100
AcDbEntity
8
0
100
AcDbSpline
70
0
71
3
72
10
73
6
74
0
42
0.000000001
43
0.0000000001
44
0.0000000001
40
-0
40
-0
40
-0
40
-0
40
0.057968979558307862
40
0.057968979558307862
40
0.10650489862744739
40
0.10650489862744739
40
0.10650489862744739
40
0.10650489862744739
10
-1.3258722387681878
20
-0.59303719963335899
30
0
10
-1.3327926255435554
20
-0.59619662407550422
30
0
10
-1.3478531078025617
20
-0.60527160167021832
30
0
10
-1.3834918106531935
20
-0.63424176473425697
30
0
10
-1.3966351908740193
20
-0.64713496170543339
30
0
10
-1.4041695579961269
20
-0.65474067979870509
30
0
0
ARC
5
294
100
AcDbEntity
8
0
100
AcDbCircle
10
-1.3899609322414366
20
-0.66881601120379353
30
0
40
0.019999999999997981
210
0
220
0
230
1
100
AcDbArc
50
135.27001692453001
51
205.69574892058941
0
ARC
5
295
100
AcDbEntity
8
0
100
AcDbCircle
10
0
20
0
30
0
40
1.5625000000000098
210
0
220
0
230
1
100
AcDbArc
50
205.69574892058975
51
206.89378385051043
0
ARC
5
296
100
AcDbEntity
8
0
100
AcDbCircle
10
-1.3756733959677452
20
-0.69773129328315142
30
0
40
0.020000000000009361
210
0
220
0
230
1
100
AcDbArc
50
206.8937838504981
51
277.23336599233187
0
SPLINE
5
297
100
AcDbEntity
8
0
100
AcDbSpline
70
0
71
3
72
10
73
6
74
0
42
0.000000001
43
0.0000000001
44
0.0000000001
40
-0
40
-0
40
-0
40
-0
40
0.081559853759461579
40
0.081559853759461579
40
0.17896786058455194
40
0.17896786058455194
40
0.17896786058455194
40
0.17896786058455194
10
-1.3731551766331738
20
-0.71757212419778205
30
0
10
-1.3625369662141218
20
-0.716224449652756
30
0
10
-1.3443128179551533
20
-0.71364605369743161
30
0
10
-1.2996458549388648
20
-0.70300895190931478
30
0
10
-1.2832830945134381
20
-0.69658677490347409
30
0
10
-1.2765657405268738
20
-0.6930208871743464
30
0
0
LINE
5
298
100
AcDbEntity
8
0
100
AcDbLine
10
-1.2765657405268738
20
-0.6930208871743464
30
0
11
-1.26694478405239
21
-0.68780958625316624
31
0
0
ARC
5
299
100
AcDbEntity
8
0
100
AcDbCircle
10
-1.2576396205660907
20
-0.70498851609116253
30
0
40
0.019537187563351044
210
0
220
-0
230
1
100
AcDbArc
50
29.219318267074048
51
118.4426960914612
0
ARC
5
300
100
AcDbEntity
8
0
100
AcDbCircle
10
0.00036373048680296755
20
-0.0013574599230849989
30
0
40
1.4218750000028963
210
0
220
0
230
1
100
AcDbArc
50
209.2193182670751
51
210.78068173292507
0
ARC
5
301
100
AcDbEntity
8
0
100
AcDbCircle
10
-1.2380003145728711
20
-0.7390047918968109
30
0
40
0.019537187563351145
210
0
220
0
230
1
100
AcDbArc
50
-58.442696091460242
51
30.780681732930386
0
LINE
5
302
100
AcDbEntity
8
0
100
AcDbLine
10
-1.2277755066664851
20
-0.7556527647813116
30
0
11
-1.2370991038882342
21
-0.76137910703632894
31
0
0
SPLINE
5
303
100
AcDbEntity
8
0
100
AcDbSpline
70
0
71
3
72
10
73
6
74
0
42
0.000000001
43
0.0000000001
44
0.0000000001
40
-0
40
-0
40
-0
40
-0
40
0.057844497976951653
40
0.057844497976951653
40
0.10628278848914885
40
0.10628278848914885
40
0.10628278848914885
40
0.10628278848914885
10
-1.2370991038882342
20
-0.76137910703632883
30
0
10
-1.2435340501243908
20
-0.76540612773488714
30
0
10
-1.2572534575368413
20
-0.77634368235169759
30
0
10
-1.2887567568764033
20
-0.80964797833014412
30
0
10
-1.3000835948053726
20
-0.82411045134235816
30
0
10
-1.3065556071218229
20
-0.8326205795867847
30
0
0
ARC
5
304
100
AcDbEntity
8
0
100
AcDbCircle
10
-1.2906362524692596
20
-0.84472736063898468
30
0
40
0.019999999999999966
210
0
220
0
230
1
100
AcDbArc
50
142.74675620780593
51
213.2049314570973
0
ARC
5
305
100
AcDbEntity
8
0
100
AcDbCircle
10
0
20
0
30
0
40
1.5624999999999998
210
0
220
0
230
1
100
AcDbArc
50
213.2049314570969
51
214.40753402508656
0
ARC
5
306
100
AcDbEntity
8
0
100
AcDbCircle
10
-1.2726229685170996
20
-0.87162895202187018
30
0
40
0.019999999999994137
210
0
220
0
230
1
100
AcDbArc
50
214.40753402508682
51
284.75739793101059
0
SPLINE
5
307
100
AcDbEntity
8
0
100
AcDbSpline
70
0
71
3
72
10
73
6
74
0
42
0.000000001
43
0.0000000001
44
0.0000000001
40
-0
40
-0
40
-0
40
-0
40
0.081455269440664543
40
0.081455269440664543
40
0.17872849809737446
40
0.17872849809737446
40
0.17872849809737446
40
0.17872849809737446
10
-1.2675284323297793
20
-0.89096921316374844
30
0
10
-1.2571913838890671
20
-0.8882462681649711
30
0
10
-1.2395029338707899
20
-0.88331723814533747
30
0
10
-1.1966934234096154
20
-0.86696050513558598
30
0
10
-1.1813445161882641
20
-0.85847392482766838
30
0
10
-1.175163939555703
20
-0.85407163080290227
30
0
0
LINE
5
308
100
AcDbEntity
8
0
100
AcDbLine
10
-1.175163939555703
20
-0.85407163080290227
30
0
11
-1.1663055029633289
21
-0.84764912646939627
31
0
0
ARC
5
309
100
AcDbEntity
8
0
100
AcDbCircle
10
-1.1548376461424255
20
-0.86346652062332696
30
0
40
0.019537187563350909
210
0
220
-0
230
1
100
AcDbArc
50
36.719318267073021
51
125.942696091461
0
ARC
5
310
100
AcDbEntity
8
0
100
AcDbCircle
10
0.00056102934546260275
20
-0.0016527384809232374
30
0
40
1.4218749999839033
210
0
220
0
230
1
100
AcDbArc
50
216.71931826706978
51
217.38197306065297
0
ARC
5
311
100
AcDbEntity
8
0
100
AcDbCircle
10
-1.0895386372549369
20
-0.83455353236848628
30
0
40
0.04999999999999994
210
0
220
0
230
1
100
AcDbArc
50
217.38197306066789
51
265.15534739755037
0
LINE
5
312
100
AcDbEntity
8
0
100
AcDbLine
10
-1.0937613582318031
20
-0.88437489954715287
30
0
11
0.12818711264671137
21
-0.98794386468863016
31
0
0
ARC
5
313
100
AcDbEntity
8
0
100
AcDbCircle
10
0.096516705320216223
20
-1.3616041185286309
30
0
40
0.37500000000000006
210
0
220
-0
230
1
100
AcDbArc
50
19.999999999999567
51
85.155347397550571
0
LINE
5
314
100
AcDbEntity
8
0
100
AcDbLine
10
0.44890143811493288
20
-1.2333465647815078
30
0
11
1.0225284364888778
21
-2.8093737900034887
31
0
0
ARC
5
315
100
AcDbEntity
8
0
100
AcDbCircle
10
-0.85685680508293904
20
-3.4934140766548127
30
0
40
1.999999999999996
210
0
220
0
230
1
100
AcDbArc
50
-10.854946574895845
51
19.999999999999641
0
ARC
5
316
100
AcDbEntity
8
0
100
AcDbCircle
10
6.9999999999999973
20
-4.9999999999999991
30
0
40
5.9999999999999982
210
0
220
0
230
1
100
AcDbArc
50
169.14505342510418
51
180
0
ARC
5
317
100
AcDbEntity
8
0
100
AcDbCircle
10
1.4999999999999973
20
-4.9999999999999991
30
0
40
0.49999999999999872
210
0
220
0
230
1
100
AcDbArc
50
180
51
217.90945295101213
0
ARC
5
318
100
AcDbEntity
8
0
100
AcDbCircle
10
5.8394049939830044
20
-1.6207154162167146
30
0
40
6.0000000000000018
210
0
220
0
230
1
100
AcDbArc
50
217.90945295101184
51
225.15097328202239
0
ARC
5
319
100
AcDbEntity
8
0
100
AcDbCircle
10
1.7842685784265737
20
-5.6972787545236461
30
0
40
0.24999999999999897
210
0
220
0
230
1
100
AcDbArc
50
225.15097328202236
51
355.00000000000051
0
LINE
5
320
100
AcDbEntity
8
0
100
AcDbLine
10
2.03331725294951
20
-5.7190676902105588
30
0
11
2.2146386597807379
21
-3.6465545265191959
31
0
0
ARC
5
321
100
AcDbEntity
8
0
100
AcDbCircle
10
0.22224926359724573
20
-3.4722430410238934
30
0
40
1.9999999999999998
210
0
220
0
230
1
100
AcDbArc
50
-4.9999999999996385
51
10.885961308929238
0
LINE
5
322
100
AcDbEntity
8
0
100
AcDbLine
10
2.1862592948903332
20
-3.0945333681531486
30
0
11
1.7816722905756612
21
-0.99076692509204367
31
0
0
LINE
5
323
100
AcDbEntity
8
0
100
AcDbLine
10
1.7816722905756612
20
-0.99076692509204367
30
0
11
0.73172149288344834
21
1.2239302025991359
31
0
0
LWPOLYLINE
5
324
100
AcDbEntity
8
0
100
AcDbPolyline
90
4
70
1
43
0.0
10
0.076698729810778271
20
0.23284609690826505
10
0.048350243709895199
20
0.18374507866387532
42
7.4660605559646731
10
0.13495278408833894
20
0.13374507866387522
10
0.16330127018922211
20
0.18284609690826498
0
CIRCLE
5
325
100
AcDbEntity
8
0
100
AcDbCircle
10
1.0036959095382891
20
-1.1147172382160897
30
0
40
0.13
210
0
220
0
230
1
0
CIRCLE
5
326
100
AcDbEntity
8
0
100
AcDbCircle
10
1.6787203469925842
20
-4.0035682776988102
30
0
40
0.12999999999999984
210
0
220
0
230
1
0
CIRCLE
5
327
100
AcDbEntity
8
0
100
AcDbCircle
10
1.5943176053790267
20
-4.9999999999999991
30
0
40
0.14062500000000008
210
0
220
0
230
1
0
ENDSEC
0
SECTION
2
OBJECTS
0
DICTIONARY
5
C
100
AcDbDictionary
3
ACAD_GROUP
350
D
3
ACAD_MLINESTYLE
350
17
0
DICTIONARY
5
D
100
AcDbDictionary
0
DICTIONARY
5
1A
330
C
100
AcDbDictionary
0
DICTIONARY
5
17
100
AcDbDictionary
0
ENDSEC
0
EOF
