ISO-10303-21;
HEADER;
/****************************************************************
 * Generated by software with PDE/Lib inside                    *
 * PDElib Version v51a, created Thu 01/14/2010                  *
 * ITI Transcendata (http://www.transcendata.com/)              *
 ****************************************************************/
FILE_DESCRIPTION((''),'2;1');
FILE_NAME('S:\\Engineering\\Public\\Projects\\FlatPack 2\\FP2 19in 600 15 INCH DEEP\\Workspace\\111junk\\STANDOFFS\\THROUGH\\UNIFIED\\SO-440-8-ZI.stp','2012-07-02T08:35:02',('stlaus'),(''),'Autodesk Inventor 2011','Autodesk Inventor 2011','');
FILE_SCHEMA(('AUTOMOTIVE_DESIGN { 1 0 10303 214 1 1 1 1 }'));
ENDSEC;
DATA;
#5=APPLICATION_CONTEXT('automotive design');
#6=APPLICATION_PROTOCOL_DEFINITION('International Standard','automotive_design',2001,#5);
#7=PRODUCT_CONTEXT('',#5,'mechanical');
#8=PRODUCT('Assembly1','Assembly1',$,(#7));
#9=PRODUCT_RELATED_PRODUCT_CATEGORY('part',$,(#8));
#10=PRODUCT_DEFINITION_FORMATION('',$,#8);
#11=PRODUCT_DEFINITION_CONTEXT('part definition',#5,'design');
#12=PRODUCT_DEFINITION('',$,#10,#11);
#18=(NAMED_UNIT(*)PLANE_ANGLE_UNIT()SI_UNIT($,.RADIAN.));
#19=DIMENSIONAL_EXPONENTS(0.0,0.0,0.0,0.0,0.0,0.0,0.0);
#20=PLANE_ANGLE_MEASURE_WITH_UNIT(PLANE_ANGLE_MEASURE(0.017453292500000),#18);
#24=(CONVERSION_BASED_UNIT('DEGREE',#20)NAMED_UNIT(#19)PLANE_ANGLE_UNIT());
#28=(NAMED_UNIT(*)SI_UNIT($,.STERADIAN.)SOLID_ANGLE_UNIT());
#32=(LENGTH_UNIT()NAMED_UNIT(*)SI_UNIT(.CENTI.,.METRE.));
#33=DIMENSIONAL_EXPONENTS(1.0,0.0,0.0,0.0,0.0,0.0,0.0);
#34=LENGTH_MEASURE_WITH_UNIT(LENGTH_MEASURE(2.540000000000000),#32);
#38=(CONVERSION_BASED_UNIT('INCH',#34)LENGTH_UNIT()NAMED_UNIT(#33));
#40=UNCERTAINTY_MEASURE_WITH_UNIT(LENGTH_MEASURE(0.000393700787402),#38,'DISTANCE_ACCURACY_VALUE','');
#42=(GEOMETRIC_REPRESENTATION_CONTEXT(3)GLOBAL_UNCERTAINTY_ASSIGNED_CONTEXT((#40))GLOBAL_UNIT_ASSIGNED_CONTEXT((#24,#28,#38))REPRESENTATION_CONTEXT('None','None'));
#43=AXIS2_PLACEMENT_3D('',#44,#45,#46);
#44=CARTESIAN_POINT('',(0.0,0.0,0.0));
#45=DIRECTION('',(0.0,0.0,1.0));
#46=DIRECTION('',(1.0,0.0,0.0));
#47=SHAPE_REPRESENTATION('',(#43,#660),#42);
#48=PRODUCT_DEFINITION_SHAPE('','',#12);
#49=SHAPE_DEFINITION_REPRESENTATION(#48,#47);
#50=APPLICATION_CONTEXT('automotive design');
#51=APPLICATION_PROTOCOL_DEFINITION('International Standard','automotive_design',2001,#50);
#52=PRODUCT_CONTEXT('',#50,'mechanical');
#53=PRODUCT('SO-440-8 PEM THRU HOLE THD  STANDOFF','SO-440-8 PEM THRU HOLE THD  STANDOFF',$,(#52));
#54=PRODUCT_RELATED_PRODUCT_CATEGORY('part',$,(#53));
#55=PRODUCT_DEFINITION_FORMATION('',$,#53);
#56=PRODUCT_DEFINITION_CONTEXT('part definition',#50,'design');
#57=PRODUCT_DEFINITION('',$,#55,#56);
#63=(NAMED_UNIT(*)PLANE_ANGLE_UNIT()SI_UNIT($,.RADIAN.));
#64=DIMENSIONAL_EXPONENTS(0.0,0.0,0.0,0.0,0.0,0.0,0.0);
#65=PLANE_ANGLE_MEASURE_WITH_UNIT(PLANE_ANGLE_MEASURE(0.017453292500000),#63);
#69=(CONVERSION_BASED_UNIT('DEGREE',#65)NAMED_UNIT(#64)PLANE_ANGLE_UNIT());
#73=(NAMED_UNIT(*)SI_UNIT($,.STERADIAN.)SOLID_ANGLE_UNIT());
#77=(LENGTH_UNIT()NAMED_UNIT(*)SI_UNIT(.CENTI.,.METRE.));
#78=DIMENSIONAL_EXPONENTS(1.0,0.0,0.0,0.0,0.0,0.0,0.0);
#79=LENGTH_MEASURE_WITH_UNIT(LENGTH_MEASURE(2.540000000000000),#77);
#83=(CONVERSION_BASED_UNIT('INCH',#79)LENGTH_UNIT()NAMED_UNIT(#78));
#85=UNCERTAINTY_MEASURE_WITH_UNIT(LENGTH_MEASURE(0.000393700787402),#83,'DISTANCE_ACCURACY_VALUE','');
#87=(GEOMETRIC_REPRESENTATION_CONTEXT(3)GLOBAL_UNCERTAINTY_ASSIGNED_CONTEXT((#85))GLOBAL_UNIT_ASSIGNED_CONTEXT((#69,#73,#83))REPRESENTATION_CONTEXT('None','None'));
#88=AXIS2_PLACEMENT_3D('',#89,#90,#91);
#89=CARTESIAN_POINT('',(0.0,0.0,0.0));
#90=DIRECTION('',(0.0,0.0,1.0));
#91=DIRECTION('',(1.0,0.0,0.0));
#92=SHAPE_REPRESENTATION('',(#88),#87);
#93=PRODUCT_DEFINITION_SHAPE('','',#57);
#94=SHAPE_DEFINITION_REPRESENTATION(#93,#92);
#100=(NAMED_UNIT(*)PLANE_ANGLE_UNIT()SI_UNIT($,.RADIAN.));
#101=DIMENSIONAL_EXPONENTS(0.0,0.0,0.0,0.0,0.0,0.0,0.0);
#102=PLANE_ANGLE_MEASURE_WITH_UNIT(PLANE_ANGLE_MEASURE(0.017453292500000),#100);
#106=(CONVERSION_BASED_UNIT('DEGREE',#102)NAMED_UNIT(#101)PLANE_ANGLE_UNIT());
#110=(NAMED_UNIT(*)SI_UNIT($,.STERADIAN.)SOLID_ANGLE_UNIT());
#114=(LENGTH_UNIT()NAMED_UNIT(*)SI_UNIT(.MILLI.,.METRE.));
#116=UNCERTAINTY_MEASURE_WITH_UNIT(LENGTH_MEASURE(0.000001000000000),#114,'DISTANCE_ACCURACY_VALUE','');
#118=(GEOMETRIC_REPRESENTATION_CONTEXT(3)GLOBAL_UNCERTAINTY_ASSIGNED_CONTEXT((#116))GLOBAL_UNIT_ASSIGNED_CONTEXT((#106,#110,#114))REPRESENTATION_CONTEXT('','3D'));
#119=CARTESIAN_POINT('',(0.0,0.0,0.248500000000000));
#120=DIRECTION('',(0.0,0.0,-1.0));
#121=DIRECTION('',(-1.0,0.0,0.0));
#122=AXIS2_PLACEMENT_3D('',#119,#120,#121);
#123=CONICAL_SURFACE('',#122,0.081000000000000,45.000000000000114);
#124=CARTESIAN_POINT('',(0.079500000000000,-9.735621E-018,0.250000000000000));
#125=VERTEX_POINT('',#124);
#126=CARTESIAN_POINT('',(0.0,0.0,0.250000000000000));
#127=DIRECTION('',(0.0,0.0,-1.0));
#128=DIRECTION('',(-1.0,0.0,0.0));
#129=AXIS2_PLACEMENT_3D('',#126,#127,#128);
#130=CIRCLE('',#129,0.079500000000000);
#131=EDGE_CURVE('',#125,#125,#130,.T.);
#132=ORIENTED_EDGE('',*,*,#131,.T.);
#133=EDGE_LOOP('',(#132));
#134=FACE_OUTER_BOUND('',#133,.T.);
#135=CARTESIAN_POINT('',(0.082500000000000,1.010300E-017,0.247000000000000));
#136=VERTEX_POINT('',#135);
#137=CARTESIAN_POINT('',(0.0,0.0,0.247000000000000));
#138=DIRECTION('',(0.0,0.0,1.0));
#139=DIRECTION('',(-1.0,0.0,0.0));
#140=AXIS2_PLACEMENT_3D('',#137,#138,#139);
#141=CIRCLE('',#140,0.082500000000000);
#142=EDGE_CURVE('',#136,#136,#141,.T.);
#143=ORIENTED_EDGE('',*,*,#142,.T.);
#144=EDGE_LOOP('',(#143));
#145=FACE_BOUND('',#144,.T.);
#146=ADVANCED_FACE('',(#134,#145),#123,.T.);
#147=CARTESIAN_POINT('',(0.0,0.0,0.250000000000000));
#148=DIRECTION('',(0.0,0.0,-1.0));
#149=DIRECTION('',(-1.0,0.0,0.0));
#150=AXIS2_PLACEMENT_3D('',#147,#148,#149);
#151=PLANE('',#150);
#152=ORIENTED_EDGE('',*,*,#131,.F.);
#153=EDGE_LOOP('',(#152));
#154=FACE_OUTER_BOUND('',#153,.T.);
#155=CARTESIAN_POINT('',(0.064000000000000,7.837481E-018,0.250000000000000));
#156=VERTEX_POINT('',#155);
#157=CARTESIAN_POINT('',(0.0,0.0,0.250000000000000));
#158=DIRECTION('',(0.0,0.0,1.0));
#159=DIRECTION('',(-1.0,0.0,0.0));
#160=AXIS2_PLACEMENT_3D('',#157,#158,#159);
#161=CIRCLE('',#160,0.064000000000000);
#162=EDGE_CURVE('',#156,#156,#161,.T.);
#163=ORIENTED_EDGE('',*,*,#162,.F.);
#164=EDGE_LOOP('',(#163));
#165=FACE_BOUND('',#164,.T.);
#166=ADVANCED_FACE('',(#154,#165),#151,.F.);
#167=CARTESIAN_POINT('',(0.0,0.0,0.0));
#168=DIRECTION('',(0.0,0.0,1.0));
#169=DIRECTION('',(-1.0,0.0,0.0));
#170=AXIS2_PLACEMENT_3D('',#167,#168,#169);
#171=CYLINDRICAL_SURFACE('',#170,0.082500000000000);
#172=CARTESIAN_POINT('',(0.0,-0.082500000000000,0.102500000000000));
#173=VERTEX_POINT('',#172);
#174=CARTESIAN_POINT('',(0.0,0.0,0.102500000000000));
#175=DIRECTION('',(0.0,0.0,1.0));
#176=DIRECTION('',(-1.0,0.0,0.0));
#177=AXIS2_PLACEMENT_3D('',#174,#175,#176);
#178=CIRCLE('',#177,0.082500000000000);
#179=EDGE_CURVE('',#173,#173,#178,.T.);
#180=ORIENTED_EDGE('',*,*,#179,.T.);
#181=EDGE_LOOP('',(#180));
#182=FACE_OUTER_BOUND('',#181,.T.);
#183=ORIENTED_EDGE('',*,*,#142,.F.);
#184=EDGE_LOOP('',(#183));
#185=FACE_BOUND('',#184,.T.);
#186=ADVANCED_FACE('',(#182,#185),#171,.T.);
#187=CARTESIAN_POINT('',(0.0,0.0,0.246000000000000));
#188=DIRECTION('',(0.0,0.0,1.0));
#189=DIRECTION('',(-1.0,0.0,0.0));
#190=AXIS2_PLACEMENT_3D('',#187,#188,#189);
#191=CONICAL_SURFACE('',#190,0.060000000000000,45.000000000000007);
#192=CARTESIAN_POINT('',(0.056000000000000,-6.857796E-018,0.242000000000000));
#193=VERTEX_POINT('',#192);
#194=CARTESIAN_POINT('',(0.0,0.0,0.242000000000000));
#195=DIRECTION('',(0.0,0.0,-1.0));
#196=DIRECTION('',(-1.0,0.0,0.0));
#197=AXIS2_PLACEMENT_3D('',#194,#195,#196);
#198=CIRCLE('',#197,0.056000000000000);
#199=EDGE_CURVE('',#193,#193,#198,.T.);
#200=ORIENTED_EDGE('',*,*,#199,.T.);
#201=EDGE_LOOP('',(#200));
#202=FACE_OUTER_BOUND('',#201,.T.);
#203=ORIENTED_EDGE('',*,*,#162,.T.);
#204=EDGE_LOOP('',(#203));
#205=FACE_BOUND('',#204,.T.);
#206=ADVANCED_FACE('',(#202,#205),#191,.F.);
#207=CARTESIAN_POINT('',(0.0,0.0,-0.129597593950928));
#208=DIRECTION('',(0.0,0.0,1.0));
#209=DIRECTION('',(1.0,0.0,0.0));
#210=AXIS2_PLACEMENT_3D('',#207,#208,#209);
#211=CYLINDRICAL_SURFACE('',#210,0.056000000000000);
#212=CARTESIAN_POINT('',(-0.056000000000000,-6.857796E-018,0.0));
#213=VERTEX_POINT('',#212);
#214=CARTESIAN_POINT('',(0.0,0.0,0.0));
#215=DIRECTION('',(0.0,0.0,1.0));
#216=DIRECTION('',(1.0,0.0,0.0));
#217=AXIS2_PLACEMENT_3D('',#214,#215,#216);
#218=CIRCLE('',#217,0.056000000000000);
#219=EDGE_CURVE('',#213,#213,#218,.T.);
#220=ORIENTED_EDGE('',*,*,#219,.F.);
#221=EDGE_LOOP('',(#220));
#222=FACE_OUTER_BOUND('',#221,.T.);
#223=ORIENTED_EDGE('',*,*,#199,.F.);
#224=EDGE_LOOP('',(#223));
#225=FACE_BOUND('',#224,.T.);
#226=ADVANCED_FACE('',(#222,#225),#211,.F.);
#227=CARTESIAN_POINT('',(0.0,0.0,0.097500000000000));
#228=DIRECTION('',(0.0,0.0,-1.0));
#229=DIRECTION('',(0.0,-1.0,0.0));
#230=AXIS2_PLACEMENT_3D('',#227,#228,#229);
#231=CYLINDRICAL_SURFACE('',#230,0.072500000000000);
#232=CARTESIAN_POINT('',(0.0,-0.072500000000000,0.102500000000000));
#233=VERTEX_POINT('',#232);
#234=CARTESIAN_POINT('',(0.0,0.0,0.102500000000000));
#235=DIRECTION('',(0.0,0.0,-1.0));
#236=DIRECTION('',(0.0,-1.0,0.0));
#237=AXIS2_PLACEMENT_3D('',#234,#235,#236);
#238=CIRCLE('',#237,0.072500000000000);
#239=EDGE_CURVE('',#233,#233,#238,.T.);
#240=ORIENTED_EDGE('',*,*,#239,.T.);
#241=EDGE_LOOP('',(#240));
#242=FACE_OUTER_BOUND('',#241,.T.);
#243=CARTESIAN_POINT('',(0.0,-0.072500000000000,0.092500000000000));
#244=VERTEX_POINT('',#243);
#245=CARTESIAN_POINT('',(0.0,0.0,0.092500000000000));
#246=DIRECTION('',(0.0,0.0,-1.0));
#247=DIRECTION('',(0.0,-1.0,0.0));
#248=AXIS2_PLACEMENT_3D('',#245,#246,#247);
#249=CIRCLE('',#248,0.072500000000000);
#250=EDGE_CURVE('',#244,#244,#249,.T.);
#251=ORIENTED_EDGE('',*,*,#250,.F.);
#252=EDGE_LOOP('',(#251));
#253=FACE_BOUND('',#252,.T.);
#254=ADVANCED_FACE('',(#242,#253),#231,.T.);
#255=CARTESIAN_POINT('',(0.0,-0.077500000000000,0.102500000000000));
#256=DIRECTION('',(0.0,0.0,1.0));
#257=DIRECTION('',(1.0,0.0,0.0));
#258=AXIS2_PLACEMENT_3D('',#255,#256,#257);
#259=PLANE('',#258);
#260=ORIENTED_EDGE('',*,*,#179,.F.);
#261=EDGE_LOOP('',(#260));
#262=FACE_OUTER_BOUND('',#261,.T.);
#263=ORIENTED_EDGE('',*,*,#239,.F.);
#264=EDGE_LOOP('',(#263));
#265=FACE_BOUND('',#264,.T.);
#266=ADVANCED_FACE('',(#262,#265),#259,.F.);
#267=CARTESIAN_POINT('',(0.0,-0.077500000000000,0.092500000000000));
#268=DIRECTION('',(0.0,0.0,-1.0));
#269=DIRECTION('',(-1.0,0.0,0.0));
#270=AXIS2_PLACEMENT_3D('',#267,#268,#269);
#271=PLANE('',#270);
#272=CARTESIAN_POINT('',(0.0,-0.082500000000000,0.092500000000000));
#273=VERTEX_POINT('',#272);
#274=CARTESIAN_POINT('',(0.0,0.0,0.092500000000000));
#275=DIRECTION('',(0.0,0.0,-1.0));
#276=DIRECTION('',(-1.0,0.0,0.0));
#277=AXIS2_PLACEMENT_3D('',#274,#275,#276);
#278=CIRCLE('',#277,0.082500000000000);
#279=EDGE_CURVE('',#273,#273,#278,.T.);
#280=ORIENTED_EDGE('',*,*,#279,.F.);
#281=EDGE_LOOP('',(#280));
#282=FACE_OUTER_BOUND('',#281,.T.);
#283=ORIENTED_EDGE('',*,*,#250,.T.);
#284=EDGE_LOOP('',(#283));
#285=FACE_BOUND('',#284,.T.);
#286=ADVANCED_FACE('',(#282,#285),#271,.F.);
#287=CARTESIAN_POINT('',(0.0,0.0,0.0));
#288=DIRECTION('',(0.0,0.0,1.0));
#289=DIRECTION('',(-1.0,0.0,0.0));
#290=AXIS2_PLACEMENT_3D('',#287,#288,#289);
#291=CYLINDRICAL_SURFACE('',#290,0.082500000000000);
#292=CARTESIAN_POINT('',(0.0,-0.082500000000000,0.080000000000000));
#293=VERTEX_POINT('',#292);
#294=CARTESIAN_POINT('',(0.0,0.0,0.080000000000000));
#295=DIRECTION('',(0.0,0.0,1.0));
#296=DIRECTION('',(-1.0,0.0,0.0));
#297=AXIS2_PLACEMENT_3D('',#294,#295,#296);
#298=CIRCLE('',#297,0.082500000000000);
#299=EDGE_CURVE('',#293,#293,#298,.T.);
#300=ORIENTED_EDGE('',*,*,#299,.T.);
#301=EDGE_LOOP('',(#300));
#302=FACE_OUTER_BOUND('',#301,.T.);
#303=ORIENTED_EDGE('',*,*,#279,.T.);
#304=EDGE_LOOP('',(#303));
#305=FACE_BOUND('',#304,.T.);
#306=ADVANCED_FACE('',(#302,#305),#291,.T.);
#307=CARTESIAN_POINT('',(0.0,0.0,0.075000000000000));
#308=DIRECTION('',(0.0,0.0,-1.0));
#309=DIRECTION('',(0.0,-1.0,0.0));
#310=AXIS2_PLACEMENT_3D('',#307,#308,#309);
#311=CYLINDRICAL_SURFACE('',#310,0.072500000000000);
#312=CARTESIAN_POINT('',(0.0,-0.072500000000000,0.080000000000000));
#313=VERTEX_POINT('',#312);
#314=CARTESIAN_POINT('',(0.0,0.0,0.080000000000000));
#315=DIRECTION('',(0.0,0.0,-1.0));
#316=DIRECTION('',(0.0,-1.0,0.0));
#317=AXIS2_PLACEMENT_3D('',#314,#315,#316);
#318=CIRCLE('',#317,0.072500000000000);
#319=EDGE_CURVE('',#313,#313,#318,.T.);
#320=ORIENTED_EDGE('',*,*,#319,.T.);
#321=EDGE_LOOP('',(#320));
#322=FACE_OUTER_BOUND('',#321,.T.);
#323=CARTESIAN_POINT('',(0.0,-0.072500000000000,0.070000000000000));
#324=VERTEX_POINT('',#323);
#325=CARTESIAN_POINT('',(0.0,0.0,0.070000000000000));
#326=DIRECTION('',(0.0,0.0,-1.0));
#327=DIRECTION('',(0.0,-1.0,0.0));
#328=AXIS2_PLACEMENT_3D('',#325,#326,#327);
#329=CIRCLE('',#328,0.072500000000000);
#330=EDGE_CURVE('',#324,#324,#329,.T.);
#331=ORIENTED_EDGE('',*,*,#330,.F.);
#332=EDGE_LOOP('',(#331));
#333=FACE_BOUND('',#332,.T.);
#334=ADVANCED_FACE('',(#322,#333),#311,.T.);
#335=CARTESIAN_POINT('',(0.0,-0.077500000000000,0.080000000000000));
#336=DIRECTION('',(0.0,0.0,1.0));
#337=DIRECTION('',(1.0,0.0,0.0));
#338=AXIS2_PLACEMENT_3D('',#335,#336,#337);
#339=PLANE('',#338);
#340=ORIENTED_EDGE('',*,*,#299,.F.);
#341=EDGE_LOOP('',(#340));
#342=FACE_OUTER_BOUND('',#341,.T.);
#343=ORIENTED_EDGE('',*,*,#319,.F.);
#344=EDGE_LOOP('',(#343));
#345=FACE_BOUND('',#344,.T.);
#346=ADVANCED_FACE('',(#342,#345),#339,.F.);
#347=CARTESIAN_POINT('',(0.0,-0.077500000000000,0.070000000000000));
#348=DIRECTION('',(0.0,0.0,-1.0));
#349=DIRECTION('',(-1.0,0.0,0.0));
#350=AXIS2_PLACEMENT_3D('',#347,#348,#349);
#351=PLANE('',#350);
#352=CARTESIAN_POINT('',(0.0,-0.082500000000000,0.070000000000000));
#353=VERTEX_POINT('',#352);
#354=CARTESIAN_POINT('',(0.0,0.0,0.070000000000000));
#355=DIRECTION('',(0.0,0.0,-1.0));
#356=DIRECTION('',(-1.0,0.0,0.0));
#357=AXIS2_PLACEMENT_3D('',#354,#355,#356);
#358=CIRCLE('',#357,0.082500000000000);
#359=EDGE_CURVE('',#353,#353,#358,.T.);
#360=ORIENTED_EDGE('',*,*,#359,.F.);
#361=EDGE_LOOP('',(#360));
#362=FACE_OUTER_BOUND('',#361,.T.);
#363=ORIENTED_EDGE('',*,*,#330,.T.);
#364=EDGE_LOOP('',(#363));
#365=FACE_BOUND('',#364,.T.);
#366=ADVANCED_FACE('',(#362,#365),#351,.F.);
#367=CARTESIAN_POINT('',(0.0,0.0,0.0));
#368=DIRECTION('',(0.0,0.0,1.0));
#369=DIRECTION('',(-1.0,0.0,0.0));
#370=AXIS2_PLACEMENT_3D('',#367,#368,#369);
#371=CYLINDRICAL_SURFACE('',#370,0.082500000000000);
#372=CARTESIAN_POINT('',(0.0,-0.082500000000000,0.055000000000000));
#373=VERTEX_POINT('',#372);
#374=CARTESIAN_POINT('',(0.0,0.0,0.055000000000000));
#375=DIRECTION('',(0.0,0.0,1.0));
#376=DIRECTION('',(-1.0,0.0,0.0));
#377=AXIS2_PLACEMENT_3D('',#374,#375,#376);
#378=CIRCLE('',#377,0.082500000000000);
#379=EDGE_CURVE('',#373,#373,#378,.T.);
#380=ORIENTED_EDGE('',*,*,#379,.T.);
#381=EDGE_LOOP('',(#380));
#382=FACE_OUTER_BOUND('',#381,.T.);
#383=ORIENTED_EDGE('',*,*,#359,.T.);
#384=EDGE_LOOP('',(#383));
#385=FACE_BOUND('',#384,.T.);
#386=ADVANCED_FACE('',(#382,#385),#371,.T.);
#387=CARTESIAN_POINT('',(0.0,0.0,0.040000000000000));
#388=DIRECTION('',(0.0,0.0,-1.0));
#389=DIRECTION('',(0.0,-1.0,0.0));
#390=AXIS2_PLACEMENT_3D('',#387,#388,#389);
#391=CYLINDRICAL_SURFACE('',#390,0.062500000000000);
#392=CARTESIAN_POINT('',(0.0,-0.062500000000000,0.055000000000000));
#393=VERTEX_POINT('',#392);
#394=CARTESIAN_POINT('',(0.0,0.0,0.055000000000000));
#395=DIRECTION('',(0.0,0.0,-1.0));
#396=DIRECTION('',(0.0,-1.0,0.0));
#397=AXIS2_PLACEMENT_3D('',#394,#395,#396);
#398=CIRCLE('',#397,0.062500000000000);
#399=EDGE_CURVE('',#393,#393,#398,.T.);
#400=ORIENTED_EDGE('',*,*,#399,.T.);
#401=EDGE_LOOP('',(#400));
#402=FACE_OUTER_BOUND('',#401,.T.);
#403=CARTESIAN_POINT('',(0.0,-0.062500000000000,0.025000000000000));
#404=VERTEX_POINT('',#403);
#405=CARTESIAN_POINT('',(0.0,0.0,0.025000000000000));
#406=DIRECTION('',(0.0,0.0,-1.0));
#407=DIRECTION('',(0.0,-1.0,0.0));
#408=AXIS2_PLACEMENT_3D('',#405,#406,#407);
#409=CIRCLE('',#408,0.062500000000000);
#410=EDGE_CURVE('',#404,#404,#409,.T.);
#411=ORIENTED_EDGE('',*,*,#410,.F.);
#412=EDGE_LOOP('',(#411));
#413=FACE_BOUND('',#412,.T.);
#414=ADVANCED_FACE('',(#402,#413),#391,.T.);
#415=CARTESIAN_POINT('',(0.0,-0.072500000000000,0.055000000000000));
#416=DIRECTION('',(0.0,0.0,1.0));
#417=DIRECTION('',(1.0,0.0,0.0));
#418=AXIS2_PLACEMENT_3D('',#415,#416,#417);
#419=PLANE('',#418);
#420=ORIENTED_EDGE('',*,*,#379,.F.);
#421=EDGE_LOOP('',(#420));
#422=FACE_OUTER_BOUND('',#421,.T.);
#423=ORIENTED_EDGE('',*,*,#399,.F.);
#424=EDGE_LOOP('',(#423));
#425=FACE_BOUND('',#424,.T.);
#426=ADVANCED_FACE('',(#422,#425),#419,.F.);
#427=CARTESIAN_POINT('',(-1.655665E-019,-1.639109E-017,0.025000000000000));
#428=DIRECTION('',(0.0,0.0,1.0));
#429=DIRECTION('',(1.0,0.0,0.0));
#430=AXIS2_PLACEMENT_3D('',#427,#428,#429);
#431=PLANE('',#430);
#432=CARTESIAN_POINT('',(-0.053982250169230,0.093500000000000,0.025000000000000));
#433=VERTEX_POINT('',#432);
#434=CARTESIAN_POINT('',(0.053982250169230,0.093500000000000,0.025000000000000));
#435=VERTEX_POINT('',#434);
#436=CARTESIAN_POINT('',(-0.053982250169230,0.093500000000000,0.025000000000000));
#437=DIRECTION('',(1.0,0.0,0.0));
#438=VECTOR('',#437,0.107964500338460);
#439=LINE('',#436,#438);
#440=EDGE_CURVE('',#433,#435,#439,.T.);
#441=ORIENTED_EDGE('',*,*,#440,.F.);
#442=CARTESIAN_POINT('',(-0.107964500338460,-6.687270E-017,0.025000000000000));
#443=VERTEX_POINT('',#442);
#444=CARTESIAN_POINT('',(-0.107964500338460,-8.326673E-017,0.025000000000000));
#445=DIRECTION('',(0.499999999999999,0.866025403784439,0.0));
#446=VECTOR('',#445,0.107964500338460);
#447=LINE('',#444,#446);
#448=EDGE_CURVE('',#443,#433,#447,.T.);
#449=ORIENTED_EDGE('',*,*,#448,.F.);
#450=CARTESIAN_POINT('',(-0.053982250169230,-0.093500000000000,0.025000000000000));
#451=VERTEX_POINT('',#450);
#452=CARTESIAN_POINT('',(-0.053982250169230,-0.093500000000000,0.025000000000000));
#453=DIRECTION('',(-0.500000000000000,0.866025403784438,0.0));
#454=VECTOR('',#453,0.107964500338460);
#455=LINE('',#452,#454);
#456=EDGE_CURVE('',#451,#443,#455,.T.);
#457=ORIENTED_EDGE('',*,*,#456,.F.);
#458=CARTESIAN_POINT('',(0.053982250169230,-0.093500000000000,0.025000000000000));
#459=VERTEX_POINT('',#458);
#460=CARTESIAN_POINT('',(0.053982250169230,-0.093500000000000,0.025000000000000));
#461=DIRECTION('',(-1.0,0.0,0.0));
#462=VECTOR('',#461,0.107964500338460);
#463=LINE('',#460,#462);
#464=EDGE_CURVE('',#459,#451,#463,.T.);
#465=ORIENTED_EDGE('',*,*,#464,.F.);
#466=CARTESIAN_POINT('',(0.107964500338460,1.308353E-018,0.025000000000000));
#467=VERTEX_POINT('',#466);
#468=CARTESIAN_POINT('',(0.107964500338460,-1.387779E-017,0.025000000000000));
#469=DIRECTION('',(-0.500000000000000,-0.866025403784439,0.0));
#470=VECTOR('',#469,0.107964500338460);
#471=LINE('',#468,#470);
#472=EDGE_CURVE('',#467,#459,#471,.T.);
#473=ORIENTED_EDGE('',*,*,#472,.F.);
#474=CARTESIAN_POINT('',(0.053982250169230,0.093500000000000,0.025000000000000));
#475=DIRECTION('',(0.500000000000000,-0.866025403784439,0.0));
#476=VECTOR('',#475,0.107964500338460);
#477=LINE('',#474,#476);
#478=EDGE_CURVE('',#435,#467,#477,.T.);
#479=ORIENTED_EDGE('',*,*,#478,.F.);
#480=EDGE_LOOP('',(#441,#449,#457,#465,#473,#479));
#481=FACE_OUTER_BOUND('',#480,.T.);
#482=ORIENTED_EDGE('',*,*,#410,.T.);
#483=EDGE_LOOP('',(#482));
#484=FACE_BOUND('',#483,.T.);
#485=ADVANCED_FACE('',(#481,#484),#431,.T.);
#486=CARTESIAN_POINT('',(-0.053982250169230,0.093500000000000,0.0));
#487=DIRECTION('',(0.0,1.0,0.0));
#488=DIRECTION('',(0.0,0.0,1.0));
#489=AXIS2_PLACEMENT_3D('',#486,#487,#488);
#490=PLANE('',#489);
#491=ORIENTED_EDGE('',*,*,#440,.T.);
#492=CARTESIAN_POINT('',(0.053982250169230,0.093500000000000,0.0));
#493=VERTEX_POINT('',#492);
#494=CARTESIAN_POINT('',(0.053982250169230,0.093500000000000,0.0));
#495=DIRECTION('',(0.0,0.0,1.0));
#496=VECTOR('',#495,0.025000000000000);
#497=LINE('',#494,#496);
#498=EDGE_CURVE('',#493,#435,#497,.T.);
#499=ORIENTED_EDGE('',*,*,#498,.F.);
#500=CARTESIAN_POINT('',(-0.053982250169230,0.093500000000000,0.0));
#501=VERTEX_POINT('',#500);
#502=CARTESIAN_POINT('',(0.053982250169230,0.093500000000000,0.0));
#503=DIRECTION('',(-1.0,0.0,0.0));
#504=VECTOR('',#503,0.107964500338460);
#505=LINE('',#502,#504);
#506=EDGE_CURVE('',#493,#501,#505,.T.);
#507=ORIENTED_EDGE('',*,*,#506,.T.);
#508=CARTESIAN_POINT('',(-0.053982250169230,0.093500000000000,0.0));
#509=DIRECTION('',(0.0,0.0,1.0));
#510=VECTOR('',#509,0.025000000000000);
#511=LINE('',#508,#510);
#512=EDGE_CURVE('',#501,#433,#511,.T.);
#513=ORIENTED_EDGE('',*,*,#512,.T.);
#514=EDGE_LOOP('',(#491,#499,#507,#513));
#515=FACE_OUTER_BOUND('',#514,.T.);
#516=ADVANCED_FACE('',(#515),#490,.T.);
#517=CARTESIAN_POINT('',(0.053982250169230,0.093500000000000,0.0));
#518=DIRECTION('',(0.866025403784439,0.500000000000000,0.0));
#519=DIRECTION('',(0.0,0.0,-1.0));
#520=AXIS2_PLACEMENT_3D('',#517,#518,#519);
#521=PLANE('',#520);
#522=ORIENTED_EDGE('',*,*,#478,.T.);
#523=CARTESIAN_POINT('',(0.107964500338460,1.308353E-018,0.0));
#524=VERTEX_POINT('',#523);
#525=CARTESIAN_POINT('',(0.107964500338460,1.308353E-018,0.0));
#526=DIRECTION('',(0.0,0.0,1.0));
#527=VECTOR('',#526,0.025000000000000);
#528=LINE('',#525,#527);
#529=EDGE_CURVE('',#524,#467,#528,.T.);
#530=ORIENTED_EDGE('',*,*,#529,.F.);
#531=CARTESIAN_POINT('',(0.107964500338460,1.308353E-018,0.0));
#532=DIRECTION('',(-0.500000000000000,0.866025403784439,0.0));
#533=VECTOR('',#532,0.107964500338460);
#534=LINE('',#531,#533);
#535=EDGE_CURVE('',#524,#493,#534,.T.);
#536=ORIENTED_EDGE('',*,*,#535,.T.);
#537=ORIENTED_EDGE('',*,*,#498,.T.);
#538=EDGE_LOOP('',(#522,#530,#536,#537));
#539=FACE_OUTER_BOUND('',#538,.T.);
#540=ADVANCED_FACE('',(#539),#521,.T.);
#541=CARTESIAN_POINT('',(0.107964500338460,1.308353E-018,0.0));
#542=DIRECTION('',(0.866025403784439,-0.500000000000000,0.0));
#543=DIRECTION('',(0.0,0.0,-1.0));
#544=AXIS2_PLACEMENT_3D('',#541,#542,#543);
#545=PLANE('',#544);
#546=ORIENTED_EDGE('',*,*,#472,.T.);
#547=CARTESIAN_POINT('',(0.053982250169230,-0.093500000000000,0.0));
#548=VERTEX_POINT('',#547);
#549=CARTESIAN_POINT('',(0.053982250169230,-0.093500000000000,0.0));
#550=DIRECTION('',(0.0,0.0,1.0));
#551=VECTOR('',#550,0.025000000000000);
#552=LINE('',#549,#551);
#553=EDGE_CURVE('',#548,#459,#552,.T.);
#554=ORIENTED_EDGE('',*,*,#553,.F.);
#555=CARTESIAN_POINT('',(0.053982250169230,-0.093500000000000,0.0));
#556=DIRECTION('',(0.500000000000000,0.866025403784439,0.0));
#557=VECTOR('',#556,0.107964500338460);
#558=LINE('',#555,#557);
#559=EDGE_CURVE('',#548,#524,#558,.T.);
#560=ORIENTED_EDGE('',*,*,#559,.T.);
#561=ORIENTED_EDGE('',*,*,#529,.T.);
#562=EDGE_LOOP('',(#546,#554,#560,#561));
#563=FACE_OUTER_BOUND('',#562,.T.);
#564=ADVANCED_FACE('',(#563),#545,.T.);
#565=CARTESIAN_POINT('',(0.053982250169230,-0.093500000000000,0.0));
#566=DIRECTION('',(0.0,-1.0,0.0));
#567=DIRECTION('',(0.0,0.0,-1.0));
#568=AXIS2_PLACEMENT_3D('',#565,#566,#567);
#569=PLANE('',#568);
#570=ORIENTED_EDGE('',*,*,#464,.T.);
#571=CARTESIAN_POINT('',(-0.053982250169230,-0.093500000000000,0.0));
#572=VERTEX_POINT('',#571);
#573=CARTESIAN_POINT('',(-0.053982250169230,-0.093500000000000,0.0));
#574=DIRECTION('',(0.0,0.0,1.0));
#575=VECTOR('',#574,0.025000000000000);
#576=LINE('',#573,#575);
#577=EDGE_CURVE('',#572,#451,#576,.T.);
#578=ORIENTED_EDGE('',*,*,#577,.F.);
#579=CARTESIAN_POINT('',(-0.053982250169230,-0.093500000000000,0.0));
#580=DIRECTION('',(1.0,0.0,0.0));
#581=VECTOR('',#580,0.107964500338460);
#582=LINE('',#579,#581);
#583=EDGE_CURVE('',#572,#548,#582,.T.);
#584=ORIENTED_EDGE('',*,*,#583,.T.);
#585=ORIENTED_EDGE('',*,*,#553,.T.);
#586=EDGE_LOOP('',(#570,#578,#584,#585));
#587=FACE_OUTER_BOUND('',#586,.T.);
#588=ADVANCED_FACE('',(#587),#569,.T.);
#589=CARTESIAN_POINT('',(-0.053982250169230,-0.093500000000000,0.0));
#590=DIRECTION('',(-0.866025403784438,-0.500000000000000,0.0));
#591=DIRECTION('',(0.0,0.0,1.0));
#592=AXIS2_PLACEMENT_3D('',#589,#590,#591);
#593=PLANE('',#592);
#594=ORIENTED_EDGE('',*,*,#456,.T.);
#595=CARTESIAN_POINT('',(-0.107964500338460,-6.687270E-017,0.0));
#596=VERTEX_POINT('',#595);
#597=CARTESIAN_POINT('',(-0.107964500338460,-6.687270E-017,0.0));
#598=DIRECTION('',(0.0,0.0,1.0));
#599=VECTOR('',#598,0.025000000000000);
#600=LINE('',#597,#599);
#601=EDGE_CURVE('',#596,#443,#600,.T.);
#602=ORIENTED_EDGE('',*,*,#601,.F.);
#603=CARTESIAN_POINT('',(-0.107964500338460,-6.687270E-017,0.0));
#604=DIRECTION('',(0.500000000000000,-0.866025403784438,0.0));
#605=VECTOR('',#604,0.107964500338460);
#606=LINE('',#603,#605);
#607=EDGE_CURVE('',#596,#572,#606,.T.);
#608=ORIENTED_EDGE('',*,*,#607,.T.);
#609=ORIENTED_EDGE('',*,*,#577,.T.);
#610=EDGE_LOOP('',(#594,#602,#608,#609));
#611=FACE_OUTER_BOUND('',#610,.T.);
#612=ADVANCED_FACE('',(#611),#593,.T.);
#613=CARTESIAN_POINT('',(-0.107964500338460,-6.687270E-017,0.0));
#614=DIRECTION('',(-0.866025403784439,0.500000000000000,0.0));
#615=DIRECTION('',(0.0,0.0,1.0));
#616=AXIS2_PLACEMENT_3D('',#613,#614,#615);
#617=PLANE('',#616);
#618=ORIENTED_EDGE('',*,*,#448,.T.);
#619=ORIENTED_EDGE('',*,*,#512,.F.);
#620=CARTESIAN_POINT('',(-0.053982250169230,0.093500000000000,0.0));
#621=DIRECTION('',(-0.499999999999999,-0.866025403784439,0.0));
#622=VECTOR('',#621,0.107964500338460);
#623=LINE('',#620,#622);
#624=EDGE_CURVE('',#501,#596,#623,.T.);
#625=ORIENTED_EDGE('',*,*,#624,.T.);
#626=ORIENTED_EDGE('',*,*,#601,.T.);
#627=EDGE_LOOP('',(#618,#619,#625,#626));
#628=FACE_OUTER_BOUND('',#627,.T.);
#629=ADVANCED_FACE('',(#628),#617,.T.);
#630=CARTESIAN_POINT('',(0.0,0.0,0.0));
#631=DIRECTION('',(0.0,0.0,-1.0));
#632=DIRECTION('',(-1.0,0.0,0.0));
#633=AXIS2_PLACEMENT_3D('',#630,#631,#632);
#634=PLANE('',#633);
#635=ORIENTED_EDGE('',*,*,#624,.F.);
#636=ORIENTED_EDGE('',*,*,#506,.F.);
#637=ORIENTED_EDGE('',*,*,#535,.F.);
#638=ORIENTED_EDGE('',*,*,#559,.F.);
#639=ORIENTED_EDGE('',*,*,#583,.F.);
#640=ORIENTED_EDGE('',*,*,#607,.F.);
#641=EDGE_LOOP('',(#635,#636,#637,#638,#639,#640));
#642=FACE_OUTER_BOUND('',#641,.T.);
#643=ORIENTED_EDGE('',*,*,#219,.T.);
#644=EDGE_LOOP('',(#643));
#645=FACE_BOUND('',#644,.T.);
#646=ADVANCED_FACE('',(#642,#645),#634,.T.);
#647=CLOSED_SHELL('',(#146,#166,#186,#206,#226,#254,#266,#286,#306,#334,#346,#366,#386,#414,#426,#485,#516,#540,#564,#588,#612,#629,#646));
#648=MANIFOLD_SOLID_BREP('Solid1',#647);
#649=DRAUGHTING_PRE_DEFINED_COLOUR('white');
#650=FILL_AREA_STYLE_COLOUR('Chrome',#649);
#651=FILL_AREA_STYLE('Chrome',(#650));
#652=SURFACE_STYLE_FILL_AREA(#651);
#653=SURFACE_SIDE_STYLE('Chrome',(#652));
#654=SURFACE_STYLE_USAGE(.BOTH.,#653);
#655=PRESENTATION_STYLE_ASSIGNMENT((#654));
#656=STYLED_ITEM('',(#655),#648);
#657=MECHANICAL_DESIGN_GEOMETRIC_PRESENTATION_REPRESENTATION('',(#656),#42);
#658=ADVANCED_BREP_SHAPE_REPRESENTATION('ABSR',(#648),#87);
#659=SHAPE_REPRESENTATION_RELATIONSHIP('SRR','None',#658,#92);
#660=AXIS2_PLACEMENT_3D('',#661,#662,#663);
#661=CARTESIAN_POINT('',(0.0,0.0,0.0));
#662=DIRECTION('',(0.0,0.0,1.0));
#663=DIRECTION('',(1.0,0.0,0.0));
#664=NEXT_ASSEMBLY_USAGE_OCCURRENCE('SO-440-8 PEM THRU HOLE THD  STANDOFF:1','SO-440-8 PEM THRU HOLE THD  STANDOFF:1','SO-440-8 PEM THRU HOLE THD  STANDOFF:1',#12,#57,'SO-440-8 PEM THRU HOLE THD  STANDOFF:1');
#665=PRODUCT_DEFINITION_SHAPE('SO-440-8 PEM THRU HOLE THD  STANDOFF:1','SO-440-8 PEM THRU HOLE THD  STANDOFF:1',#664);
#666=ITEM_DEFINED_TRANSFORMATION('SO-440-8 PEM THRU HOLE THD  STANDOFF:1','SO-440-8 PEM THRU HOLE THD  STANDOFF:1',#88,#660);
#670=(REPRESENTATION_RELATIONSHIP('SO-440-8 PEM THRU HOLE THD  STANDOFF:1','SO-440-8 PEM THRU HOLE THD  STANDOFF:1',#92,#47)REPRESENTATION_RELATIONSHIP_WITH_TRANSFORMATION(#666)SHAPE_REPRESENTATION_RELATIONSHIP());
#671=CONTEXT_DEPENDENT_SHAPE_REPRESENTATION(#670,#665);
ENDSEC;
END-ISO-10303-21;
