ISO-10303-21;
HEADER;
FILE_DESCRIPTION (( 'STEP AP203' ),
    '1' );
FILE_NAME ('90126A514.step',
    '2009-10-20T15:53:05',
    ( ' ' ),
    ( ' ' ),
    'SwSTEP 2.0',
    'SolidWorks 2007',
    '' );
FILE_SCHEMA (( 'CONFIG_CONTROL_DESIGN' ));
ENDSEC;

DATA;
#1 = PERSON_AND_ORGANIZATION_ROLE ( 'creator' ) ;
#2 = CC_DESIGN_APPROVAL ( #8, ( #13 ) ) ;
#3 = APPROVAL_DATE_TIME ( #4, #8 ) ;
#4 = DATE_AND_TIME ( #5, #6 ) ;
#5 = CALENDAR_DATE ( 2009, 20, 10 ) ;
#6 = LOCAL_TIME ( 10, 53, 5.000000000000000000, #7 ) ;
#7 = COORDINATED_UNIVERSAL_TIME_OFFSET ( 6, 0, .BEHIND. ) ;
#8 = APPROVAL ( #9, 'UNSPECIFIED' ) ;
#9 = APPROVAL_STATUS ( 'not_yet_approved' ) ;
#10 = APPLICATION_CONTEXT ( 'configuration controlled 3d designs of mechanical parts and assemblies' ) ;
#11 = PERSON_AND_ORGANIZATION ( #26, #30 ) ;
#12 = PERSON_AND_ORGANIZATION ( #26, #30 ) ;
#13 = PRODUCT_DEFINITION ( 'UNKNOWN', '', #60, #17 ) ;
#14 = CALENDAR_DATE ( 2009, 20, 10 ) ;
#15 = LOCAL_TIME ( 10, 53, 5.000000000000000000, #20 ) ;
#16 = APPLICATION_PROTOCOL_DEFINITION ( 'international standard', 'config_control_design', 1994, #10 ) ;
#17 = DESIGN_CONTEXT ( 'detailed design', #10, 'design' ) ;
#18 = APPROVAL_PERSON_ORGANIZATION ( #12, #8, #19 ) ;
#19 = APPROVAL_ROLE ( '' ) ;
#20 = COORDINATED_UNIVERSAL_TIME_OFFSET ( 6, 0, .BEHIND. ) ;
#21 = CC_DESIGN_PERSON_AND_ORGANIZATION_ASSIGNMENT ( #11, #1, ( #13 ) ) ;
#22 = DATE_AND_TIME ( #14, #15 ) ;
#23 = CC_DESIGN_PERSON_AND_ORGANIZATION_ASSIGNMENT ( #32, #24, ( #27 ) ) ;
#24 = PERSON_AND_ORGANIZATION_ROLE ( 'design_owner' ) ;
#25 = DIRECTION ( 'NONE',  ( 1.000000000000000000, 0.0000000000000000000, 0.0000000000000000000 ) ) ;
#26 = PERSON ( 'UNSPECIFIED', 'UNSPECIFIED', 'UNSPECIFIED', ('UNSPECIFIED'), ('UNSPECIFIED'), ('UNSPECIFIED') ) ;
#27 = PRODUCT ( '90126A514', '90126A514', '', ( #33 ) ) ;
#28 = CARTESIAN_POINT ( 'NONE',  ( 0.0000000000000000000, 0.0000000000000000000, 0.0000000000000000000 ) ) ;
#29 = APPLICATION_CONTEXT ( 'configuration controlled 3d designs of mechanical parts and assemblies' ) ;
#30 = ORGANIZATION ( 'UNSPECIFIED', 'UNSPECIFIED', '' ) ;
#31 = AXIS2_PLACEMENT_3D ( 'NONE', #28, #35, #25 ) ;
#32 = PERSON_AND_ORGANIZATION ( #26, #30 ) ;
#33 = MECHANICAL_CONTEXT ( 'NONE', #29, 'mechanical' ) ;
#34 = APPLICATION_PROTOCOL_DEFINITION ( 'international standard', 'config_control_design', 1994, #29 ) ;
#35 = DIRECTION ( 'NONE',  ( 0.0000000000000000000, 0.0000000000000000000, 1.000000000000000000 ) ) ;
#36 = PERSON_AND_ORGANIZATION ( #26, #30 ) ;
#37 = CALENDAR_DATE ( 2009, 20, 10 ) ;
#38 = LOCAL_TIME ( 10, 53, 5.000000000000000000, #43 ) ;
#39 = CC_DESIGN_DATE_AND_TIME_ASSIGNMENT ( #22, #53, ( #13 ) ) ;
#40 = PRODUCT_RELATED_PRODUCT_CATEGORY ( 'detail', '', ( #27 ) ) ;
#41 = CC_DESIGN_SECURITY_CLASSIFICATION ( #49, ( #60 ) ) ;
#42 = DATE_AND_TIME ( #73, #74 ) ;
#43 = COORDINATED_UNIVERSAL_TIME_OFFSET ( 6, 0, .BEHIND. ) ;
#44 = APPROVAL_ROLE ( '' ) ;
#45 = APPROVAL_STATUS ( 'not_yet_approved' ) ;
#46 = PERSON_AND_ORGANIZATION ( #26, #30 ) ;
#47 = CC_DESIGN_APPROVAL ( #68, ( #49 ) ) ;
#48 = PERSON_AND_ORGANIZATION ( #26, #30 ) ;
#49 = SECURITY_CLASSIFICATION ( '', '', #69 ) ;
#50 = PERSON_AND_ORGANIZATION_ROLE ( 'creator' ) ;
#51 = CC_DESIGN_PERSON_AND_ORGANIZATION_ASSIGNMENT ( #55, #54, ( #60 ) ) ;
#52 = APPROVAL_PERSON_ORGANIZATION ( #36, #59, #58 ) ;
#53 = DATE_TIME_ROLE ( 'creation_date' ) ;
#54 = PERSON_AND_ORGANIZATION_ROLE ( 'design_supplier' ) ;
#55 = PERSON_AND_ORGANIZATION ( #26, #30 ) ;
#56 = CC_DESIGN_PERSON_AND_ORGANIZATION_ASSIGNMENT ( #48, #57, ( #49 ) ) ;
#57 = PERSON_AND_ORGANIZATION_ROLE ( 'classification_officer' ) ;
#58 = APPROVAL_ROLE ( '' ) ;
#59 = APPROVAL ( #77, 'UNSPECIFIED' ) ;
#60 = PRODUCT_DEFINITION_FORMATION_WITH_SPECIFIED_SOURCE ( 'ANY', '', #27, .NOT_KNOWN. ) ;
#61 = APPROVAL_DATE_TIME ( #62, #68 ) ;
#62 = DATE_AND_TIME ( #63, #75 ) ;
#63 = CALENDAR_DATE ( 2009, 20, 10 ) ;
#64 = DATE_TIME_ROLE ( 'classification_date' ) ;
#65 = DATE_AND_TIME ( #37, #38 ) ;
#66 = CC_DESIGN_APPROVAL ( #59, ( #60 ) ) ;
#67 = APPROVAL_PERSON_ORGANIZATION ( #46, #68, #44 ) ;
#68 = APPROVAL ( #45, 'UNSPECIFIED' ) ;
#69 = SECURITY_CLASSIFICATION_LEVEL ( 'unclassified' ) ;
#70 = COORDINATED_UNIVERSAL_TIME_OFFSET ( 6, 0, .BEHIND. ) ;
#71 = SHAPE_DEFINITION_REPRESENTATION ( #72, #251 ) ;
#72 = PRODUCT_DEFINITION_SHAPE ( 'NONE', 'NONE',  #13 ) ;
#73 = CALENDAR_DATE ( 2009, 20, 10 ) ;
#74 = LOCAL_TIME ( 10, 53, 5.000000000000000000, #70 ) ;
#75 = LOCAL_TIME ( 10, 53, 5.000000000000000000, #76 ) ;
#76 = COORDINATED_UNIVERSAL_TIME_OFFSET ( 6, 0, .BEHIND. ) ;
#77 = APPROVAL_STATUS ( 'not_yet_approved' ) ;
#78 = CC_DESIGN_DATE_AND_TIME_ASSIGNMENT ( #65, #64, ( #49 ) ) ;
#79 = CC_DESIGN_PERSON_AND_ORGANIZATION_ASSIGNMENT ( #80, #50, ( #60 ) ) ;
#80 = PERSON_AND_ORGANIZATION ( #26, #30 ) ;
#81 = APPROVAL_DATE_TIME ( #42, #59 ) ;
#82 = EDGE_CURVE ( 'NONE', #109, #85, #211, .T. ) ;
#83 = VERTEX_POINT ( 'NONE', #206 ) ;
#84 = VERTEX_POINT ( 'NONE', #205 ) ;
#85 = VERTEX_POINT ( 'NONE', #204 ) ;
#86 = EDGE_LOOP ( 'NONE', ( #91, #88, #90, #110 ) ) ;
#87 = ADVANCED_FACE ( 'NONE', ( #203 ), #201, .T. ) ;
#88 = ORIENTED_EDGE ( 'NONE', *, *, #89, .T. ) ;
#89 = EDGE_CURVE ( 'NONE', #84, #85, #196, .T. ) ;
#90 = ORIENTED_EDGE ( 'NONE', *, *, #82, .F. ) ;
#91 = ORIENTED_EDGE ( 'NONE', *, *, #92, .T. ) ;
#92 = EDGE_CURVE ( 'NONE', #83, #84, #192, .T. ) ;
#93 = ORIENTED_EDGE ( 'NONE', *, *, #116, .F. ) ;
#94 = ORIENTED_EDGE ( 'NONE', *, *, #124, .F. ) ;
#95 = UNCERTAINTY_MEASURE_WITH_UNIT (LENGTH_MEASURE( 1.000000000000000100E-005 ), #244, 'distance_accuracy_value', 'NONE');
#96 = EDGE_CURVE ( 'NONE', #103, #97, #188, .T. ) ;
#97 = VERTEX_POINT ( 'NONE', #184 ) ;
#98 = ORIENTED_EDGE ( 'NONE', *, *, #99, .T. ) ;
#99 = EDGE_CURVE ( 'NONE', #97, #115, #181, .T. ) ;
#100 = EDGE_LOOP ( 'NONE', ( #101, #105, #98, #93 ) ) ;
#101 = ORIENTED_EDGE ( 'NONE', *, *, #102, .F. ) ;
#102 = EDGE_CURVE ( 'NONE', #103, #104, #176, .T. ) ;
#103 = VERTEX_POINT ( 'NONE', #171 ) ;
#104 = VERTEX_POINT ( 'NONE', #170 ) ;
#105 = ORIENTED_EDGE ( 'NONE', *, *, #96, .T. ) ;
#106 = ORIENTED_EDGE ( 'NONE', *, *, #116, .T. ) ;
#107 = ORIENTED_EDGE ( 'NONE', *, *, #217, .T. ) ;
#108 = CLOSED_SHELL ( 'NONE', ( #114, #87, #112, #121, #214, #130 ) ) ;
#109 = VERTEX_POINT ( 'NONE', #169 ) ;
#110 = ORIENTED_EDGE ( 'NONE', *, *, #111, .F. ) ;
#111 = EDGE_CURVE ( 'NONE', #83, #109, #168, .T. ) ;
#112 = ADVANCED_FACE ( 'NONE', ( #164 ), #163, .T. ) ;
#113 = MANIFOLD_SOLID_BREP ( 'NONE', #108 ) ;
#114 = ADVANCED_FACE ( 'NONE', ( #162 ), #157, .F. ) ;
#115 = VERTEX_POINT ( 'NONE', #152 ) ;
#116 = EDGE_CURVE ( 'NONE', #104, #115, #151, .T. ) ;
#117 = EDGE_LOOP ( 'NONE', ( #212, #213 ) ) ;
#118 = ORIENTED_EDGE ( 'NONE', *, *, #102, .T. ) ;
#119 = ORIENTED_EDGE ( 'NONE', *, *, #120, .F. ) ;
#120 = EDGE_CURVE ( 'NONE', #85, #109, #147, .T. ) ;
#121 = ADVANCED_FACE ( 'NONE', ( #142, #141 ), #140, .F. ) ;
#122 = EDGE_LOOP ( 'NONE', ( #123, #118 ) ) ;
#123 = ORIENTED_EDGE ( 'NONE', *, *, #124, .T. ) ;
#124 = EDGE_CURVE ( 'NONE', #104, #103, #135, .T. ) ;
#125 = ORIENTED_EDGE ( 'NONE', *, *, #89, .F. ) ;
#126 = ORIENTED_EDGE ( 'NONE', *, *, #128, .T. ) ;
#127 = EDGE_LOOP ( 'NONE', ( #125, #126, #129, #119 ) ) ;
#128 = EDGE_CURVE ( 'NONE', #84, #83, #247, .T. ) ;
#129 = ORIENTED_EDGE ( 'NONE', *, *, #111, .T. ) ;
#130 = ADVANCED_FACE ( 'NONE', ( #231 ), #248, .F. ) ;
#131 = DIRECTION ( 'NONE',  ( 1.000000000000000000, 0.0000000000000000000, 0.0000000000000000000 ) ) ;
#132 = DIRECTION ( 'NONE',  ( 0.0000000000000000000, 0.0000000000000000000, 1.000000000000000000 ) ) ;
#133 = CARTESIAN_POINT ( 'NONE',  ( 0.0000000000000000000, 0.0000000000000000000, -0.02999999999999999900 ) ) ;
#134 = AXIS2_PLACEMENT_3D ( 'NONE', #133, #132, #131 ) ;
#135 = CIRCLE ( 'NONE', #134, 0.1093749999999999700 ) ;
#136 = DIRECTION ( 'NONE',  ( 1.000000000000000000, 0.0000000000000000000, 0.0000000000000000000 ) ) ;
#137 = DIRECTION ( 'NONE',  ( 0.0000000000000000000, 0.0000000000000000000, 1.000000000000000000 ) ) ;
#138 = CARTESIAN_POINT ( 'NONE',  ( 0.0000000000000000000, 0.0000000000000000000, -0.02999999999999999900 ) ) ;
#139 = AXIS2_PLACEMENT_3D ( 'NONE', #138, #137, #136 ) ;
#140 = PLANE ( 'NONE',  #139 ) ;
#141 = FACE_OUTER_BOUND ( 'NONE', #117, .T. ) ;
#142 = FACE_BOUND ( 'NONE', #122, .T. ) ;
#143 = DIRECTION ( 'NONE',  ( 1.000000000000000000, 0.0000000000000000000, 0.0000000000000000000 ) ) ;
#144 = DIRECTION ( 'NONE',  ( 0.0000000000000000000, 0.0000000000000000000, 1.000000000000000000 ) ) ;
#145 = CARTESIAN_POINT ( 'NONE',  ( 0.0000000000000000000, 0.0000000000000000000, 0.0000000000000000000 ) ) ;
#146 = AXIS2_PLACEMENT_3D ( 'NONE', #145, #144, #143 ) ;
#147 = CIRCLE ( 'NONE', #146, 0.2500000000000000000 ) ;
#148 = DIRECTION ( 'NONE',  ( 0.0000000000000000000, 0.0000000000000000000, 1.000000000000000000 ) ) ;
#149 = VECTOR ( 'NONE', #148, 39.37007874015748100 ) ;
#150 = CARTESIAN_POINT ( 'NONE',  ( 0.1093749999999999700, 0.0000000000000000000, -0.02999999999999999900 ) ) ;
#151 = LINE ( 'NONE', #150, #149 ) ;
#152 = CARTESIAN_POINT ( 'NONE',  ( 0.1093749999999999700, 0.0000000000000000000, 0.0000000000000000000 ) ) ;
#153 = DIRECTION ( 'NONE',  ( 1.000000000000000000, 0.0000000000000000000, 0.0000000000000000000 ) ) ;
#154 = DIRECTION ( 'NONE',  ( 0.0000000000000000000, 0.0000000000000000000, 1.000000000000000000 ) ) ;
#155 = CARTESIAN_POINT ( 'NONE',  ( 0.0000000000000000000, 0.0000000000000000000, -0.02999999999999999900 ) ) ;
#156 = AXIS2_PLACEMENT_3D ( 'NONE', #155, #154, #153 ) ;
#157 = CYLINDRICAL_SURFACE ( 'NONE', #156, 0.1093749999999999700 ) ;
#158 = DIRECTION ( 'NONE',  ( 1.000000000000000000, 0.0000000000000000000, 0.0000000000000000000 ) ) ;
#159 = DIRECTION ( 'NONE',  ( 0.0000000000000000000, 0.0000000000000000000, 1.000000000000000000 ) ) ;
#160 = CARTESIAN_POINT ( 'NONE',  ( 0.0000000000000000000, 0.0000000000000000000, -0.02999999999999999900 ) ) ;
#161 = AXIS2_PLACEMENT_3D ( 'NONE', #160, #159, #158 ) ;
#162 = FACE_OUTER_BOUND ( 'NONE', #100, .T. ) ;
#163 = CYLINDRICAL_SURFACE ( 'NONE', #161, 0.2500000000000000000 ) ;
#164 = FACE_OUTER_BOUND ( 'NONE', #127, .T. ) ;
#165 = DIRECTION ( 'NONE',  ( 0.0000000000000000000, 0.0000000000000000000, 1.000000000000000000 ) ) ;
#166 = VECTOR ( 'NONE', #165, 39.37007874015748100 ) ;
#167 = CARTESIAN_POINT ( 'NONE',  ( 0.2500000000000000000, 0.0000000000000000000, -0.02999999999999999900 ) ) ;
#168 = LINE ( 'NONE', #167, #166 ) ;
#169 = CARTESIAN_POINT ( 'NONE',  ( 0.2500000000000000000, 0.0000000000000000000, 0.0000000000000000000 ) ) ;
#170 = CARTESIAN_POINT ( 'NONE',  ( 0.1093749999999999700, 0.0000000000000000000, -0.02999999999999999900 ) ) ;
#171 = CARTESIAN_POINT ( 'NONE',  ( -0.1093749999999999700, 1.339457436567417100E-017, -0.02999999999999999900 ) ) ;
#172 = DIRECTION ( 'NONE',  ( 1.000000000000000000, 0.0000000000000000000, 0.0000000000000000000 ) ) ;
#173 = DIRECTION ( 'NONE',  ( 0.0000000000000000000, 0.0000000000000000000, 1.000000000000000000 ) ) ;
#174 = CARTESIAN_POINT ( 'NONE',  ( 0.0000000000000000000, 0.0000000000000000000, -0.02999999999999999900 ) ) ;
#175 = AXIS2_PLACEMENT_3D ( 'NONE', #174, #173, #172 ) ;
#176 = CIRCLE ( 'NONE', #175, 0.1093749999999999700 ) ;
#177 = DIRECTION ( 'NONE',  ( 1.000000000000000000, 0.0000000000000000000, 0.0000000000000000000 ) ) ;
#178 = DIRECTION ( 'NONE',  ( 0.0000000000000000000, 0.0000000000000000000, 1.000000000000000000 ) ) ;
#179 = CARTESIAN_POINT ( 'NONE',  ( 0.0000000000000000000, 0.0000000000000000000, 0.0000000000000000000 ) ) ;
#180 = AXIS2_PLACEMENT_3D ( 'NONE', #179, #178, #177 ) ;
#181 = CIRCLE ( 'NONE', #180, 0.1093749999999999700 ) ;
#182 = EDGE_LOOP ( 'NONE', ( #183, #94, #106, #107 ) ) ;
#183 = ORIENTED_EDGE ( 'NONE', *, *, #96, .F. ) ;
#184 = CARTESIAN_POINT ( 'NONE',  ( -0.1093749999999999700, 1.339457436567417100E-017, 0.0000000000000000000 ) ) ;
#185 = DIRECTION ( 'NONE',  ( 0.0000000000000000000, 0.0000000000000000000, 1.000000000000000000 ) ) ;
#186 = VECTOR ( 'NONE', #185, 39.37007874015748100 ) ;
#187 = CARTESIAN_POINT ( 'NONE',  ( -0.1093749999999999700, 1.339457436567417100E-017, -0.02999999999999999900 ) ) ;
#188 = LINE ( 'NONE', #187, #186 ) ;
#189 = DIRECTION ( 'NONE',  ( 1.000000000000000000, 0.0000000000000000000, 0.0000000000000000000 ) ) ;
#190 = DIRECTION ( 'NONE',  ( 0.0000000000000000000, 0.0000000000000000000, 1.000000000000000000 ) ) ;
#191 = AXIS2_PLACEMENT_3D ( 'NONE', #197, #190, #189 ) ;
#192 = CIRCLE ( 'NONE', #191, 0.2500000000000000000 ) ;
#193 = DIRECTION ( 'NONE',  ( 0.0000000000000000000, 0.0000000000000000000, 1.000000000000000000 ) ) ;
#194 = VECTOR ( 'NONE', #193, 39.37007874015748100 ) ;
#195 = CARTESIAN_POINT ( 'NONE',  ( -0.2500000000000000000, 3.061616997868382400E-017, -0.02999999999999999900 ) ) ;
#196 = LINE ( 'NONE', #195, #194 ) ;
#197 = CARTESIAN_POINT ( 'NONE',  ( 0.0000000000000000000, 0.0000000000000000000, -0.02999999999999999900 ) ) ;
#198 = DIRECTION ( 'NONE',  ( 1.000000000000000000, 0.0000000000000000000, 0.0000000000000000000 ) ) ;
#199 = DIRECTION ( 'NONE',  ( 0.0000000000000000000, 0.0000000000000000000, 1.000000000000000000 ) ) ;
#200 = AXIS2_PLACEMENT_3D ( 'NONE', #202, #199, #198 ) ;
#201 = CYLINDRICAL_SURFACE ( 'NONE', #200, 0.2500000000000000000 ) ;
#202 = CARTESIAN_POINT ( 'NONE',  ( 0.0000000000000000000, 0.0000000000000000000, -0.02999999999999999900 ) ) ;
#203 = FACE_OUTER_BOUND ( 'NONE', #86, .T. ) ;
#204 = CARTESIAN_POINT ( 'NONE',  ( -0.2500000000000000000, 3.061616997868382400E-017, 0.0000000000000000000 ) ) ;
#205 = CARTESIAN_POINT ( 'NONE',  ( -0.2500000000000000000, 3.061616997868382400E-017, -0.02999999999999999900 ) ) ;
#206 = CARTESIAN_POINT ( 'NONE',  ( 0.2500000000000000000, 0.0000000000000000000, -0.02999999999999999900 ) ) ;
#207 = DIRECTION ( 'NONE',  ( 1.000000000000000000, 0.0000000000000000000, 0.0000000000000000000 ) ) ;
#208 = DIRECTION ( 'NONE',  ( 0.0000000000000000000, 0.0000000000000000000, 1.000000000000000000 ) ) ;
#209 = CARTESIAN_POINT ( 'NONE',  ( 0.0000000000000000000, 0.0000000000000000000, 0.0000000000000000000 ) ) ;
#210 = AXIS2_PLACEMENT_3D ( 'NONE', #209, #208, #207 ) ;
#211 = CIRCLE ( 'NONE', #210, 0.2500000000000000000 ) ;
#212 = ORIENTED_EDGE ( 'NONE', *, *, #92, .F. ) ;
#213 = ORIENTED_EDGE ( 'NONE', *, *, #128, .F. ) ;
#214 = ADVANCED_FACE ( 'NONE', ( #250, #249 ), #238, .T. ) ;
#215 = EDGE_LOOP ( 'NONE', ( #216, #218 ) ) ;
#216 = ORIENTED_EDGE ( 'NONE', *, *, #217, .F. ) ;
#217 = EDGE_CURVE ( 'NONE', #115, #97, #230, .T. ) ;
#218 = ORIENTED_EDGE ( 'NONE', *, *, #99, .F. ) ;
#219 = EDGE_LOOP ( 'NONE', ( #220, #221 ) ) ;
#220 = ORIENTED_EDGE ( 'NONE', *, *, #82, .T. ) ;
#221 = ORIENTED_EDGE ( 'NONE', *, *, #120, .T. ) ;
#222 = CARTESIAN_POINT ( 'NONE',  ( 0.0000000000000000000, 0.0000000000000000000, -0.02999999999999999900 ) ) ;
#223 = DIRECTION ( 'NONE',  ( 0.0000000000000000000, 0.0000000000000000000, 1.000000000000000000 ) ) ;
#224 = CARTESIAN_POINT ( 'NONE',  ( 0.0000000000000000000, 0.0000000000000000000, -0.02999999999999999900 ) ) ;
#225 =( LENGTH_UNIT ( ) NAMED_UNIT ( * ) SI_UNIT ( $, .METRE. ) );
#226 = DIRECTION ( 'NONE',  ( 1.000000000000000000, 0.0000000000000000000, 0.0000000000000000000 ) ) ;
#227 = DIRECTION ( 'NONE',  ( 0.0000000000000000000, 0.0000000000000000000, 1.000000000000000000 ) ) ;
#228 = CARTESIAN_POINT ( 'NONE',  ( 0.0000000000000000000, 0.0000000000000000000, 0.0000000000000000000 ) ) ;
#229 = AXIS2_PLACEMENT_3D ( 'NONE', #228, #227, #226 ) ;
#230 = CIRCLE ( 'NONE', #229, 0.1093749999999999700 ) ;
#231 = FACE_OUTER_BOUND ( 'NONE', #182, .T. ) ;
#232 = AXIS2_PLACEMENT_3D ( 'NONE', #224, #223, #233 ) ;
#233 = DIRECTION ( 'NONE',  ( 1.000000000000000000, 0.0000000000000000000, 0.0000000000000000000 ) ) ;
#234 = DIRECTION ( 'NONE',  ( 1.000000000000000000, 0.0000000000000000000, 0.0000000000000000000 ) ) ;
#235 = DIRECTION ( 'NONE',  ( 0.0000000000000000000, 0.0000000000000000000, 1.000000000000000000 ) ) ;
#236 = CARTESIAN_POINT ( 'NONE',  ( 0.0000000000000000000, 0.0000000000000000000, 0.0000000000000000000 ) ) ;
#237 = AXIS2_PLACEMENT_3D ( 'NONE', #236, #235, #234 ) ;
#238 = PLANE ( 'NONE',  #237 ) ;
#239 = DIRECTION ( 'NONE',  ( 1.000000000000000000, 0.0000000000000000000, 0.0000000000000000000 ) ) ;
#240 = DIRECTION ( 'NONE',  ( 0.0000000000000000000, 0.0000000000000000000, 1.000000000000000000 ) ) ;
#241 = AXIS2_PLACEMENT_3D ( 'NONE', #222, #240, #239 ) ;
#242 =( NAMED_UNIT ( * ) SI_UNIT ( $, .STERADIAN. ) SOLID_ANGLE_UNIT ( ) );
#243 =( NAMED_UNIT ( * ) PLANE_ANGLE_UNIT ( ) SI_UNIT ( $, .RADIAN. ) );
#244 =( CONVERSION_BASED_UNIT ( 'INCH', #245 ) LENGTH_UNIT ( ) NAMED_UNIT ( #246 ) );
#245 = LENGTH_MEASURE_WITH_UNIT ( LENGTH_MEASURE( 0.02539999999999999900 ), #225 );
#246 = DIMENSIONAL_EXPONENTS ( 1.000000000000000000, 0.0000000000000000000, 0.0000000000000000000, 0.0000000000000000000, 0.0000000000000000000, 0.0000000000000000000, 0.0000000000000000000 ) ;
#247 = CIRCLE ( 'NONE', #232, 0.2500000000000000000 ) ;
#248 = CYLINDRICAL_SURFACE ( 'NONE', #241, 0.1093749999999999700 ) ;
#249 = FACE_OUTER_BOUND ( 'NONE', #219, .T. ) ;
#250 = FACE_BOUND ( 'NONE', #215, .T. ) ;
#251 = ADVANCED_BREP_SHAPE_REPRESENTATION ( '90126A514', ( #113, #31 ), #252 ) ;
#252 =( GEOMETRIC_REPRESENTATION_CONTEXT ( 3 ) GLOBAL_UNCERTAINTY_ASSIGNED_CONTEXT ( ( #95 ) ) GLOBAL_UNIT_ASSIGNED_CONTEXT ( ( #244, #243, #242 ) ) REPRESENTATION_CONTEXT ( 'NONE', 'WORKASPACE' ) );
ENDSEC;
END-ISO-10303-21;
