ISO-10303-21;
HEADER;
FILE_DESCRIPTION (( 'STEP AP203' ),
    '1' );
FILE_NAME ('90126A509.step',
    '2009-10-20T15:53:16',
    ( ' ' ),
    ( ' ' ),
    'SwSTEP 2.0',
    'SolidWorks 2007',
    '' );
FILE_SCHEMA (( 'CONFIG_CONTROL_DESIGN' ));
ENDSEC;

DATA;
#1 = ORIENTED_EDGE ( 'NONE', *, *, #17, .T. ) ;
#2 = ORIENTED_EDGE ( 'NONE', *, *, #17, .F. ) ;
#3 = EDGE_LOOP ( 'NONE', ( #69, #86 ) ) ;
#4 = ORIENTED_EDGE ( 'NONE', *, *, #36, .T. ) ;
#5 = ADVANCED_FACE ( 'NONE', ( #51, #50 ), #81, .F. ) ;
#6 = ORIENTED_EDGE ( 'NONE', *, *, #12, .T. ) ;
#7 = CLOSED_SHELL ( 'NONE', ( #70, #13, #11, #5, #62, #55 ) ) ;
#8 = EDGE_LOOP ( 'NONE', ( #22, #25, #10, #23 ) ) ;
#9 = EDGE_CURVE ( 'NONE', #54, #37, #66, .T. ) ;
#10 = ORIENTED_EDGE ( 'NONE', *, *, #30, .F. ) ;
#11 = ADVANCED_FACE ( 'NONE', ( #67 ), #82, .T. ) ;
#12 = EDGE_CURVE ( 'NONE', #32, #33, #78, .T. ) ;
#13 = ADVANCED_FACE ( 'NONE', ( #41 ), #141, .T. ) ;
#14 = ORIENTED_EDGE ( 'NONE', *, *, #36, .F. ) ;
#15 = ORIENTED_EDGE ( 'NONE', *, *, #45, .T. ) ;
#16 = EDGE_CURVE ( 'NONE', #34, #32, #116, .T. ) ;
#17 = EDGE_CURVE ( 'NONE', #46, #39, #157, .T. ) ;
#18 = ORIENTED_EDGE ( 'NONE', *, *, #20, .T. ) ;
#19 = EDGE_LOOP ( 'NONE', ( #72, #2, #4, #73 ) ) ;
#20 = EDGE_CURVE ( 'NONE', #31, #33, #144, .T. ) ;
#21 = EDGE_LOOP ( 'NONE', ( #61, #18 ) ) ;
#22 = ORIENTED_EDGE ( 'NONE', *, *, #29, .T. ) ;
#23 = ORIENTED_EDGE ( 'NONE', *, *, #12, .F. ) ;
#24 = EDGE_LOOP ( 'NONE', ( #57, #56, #6, #26 ) ) ;
#25 = ORIENTED_EDGE ( 'NONE', *, *, #35, .T. ) ;
#26 = ORIENTED_EDGE ( 'NONE', *, *, #20, .F. ) ;
#27 = EDGE_LOOP ( 'NONE', ( #1, #15 ) ) ;
#28 = EDGE_LOOP ( 'NONE', ( #63, #60 ) ) ;
#29 = EDGE_CURVE ( 'NONE', #32, #34, #127, .T. ) ;
#30 = EDGE_CURVE ( 'NONE', #33, #31, #132, .T. ) ;
#31 = VERTEX_POINT ( 'NONE', #128 ) ;
#32 = VERTEX_POINT ( 'NONE', #94 ) ;
#33 = VERTEX_POINT ( 'NONE', #93 ) ;
#34 = VERTEX_POINT ( 'NONE', #92 ) ;
#35 = EDGE_CURVE ( 'NONE', #34, #31, #120, .T. ) ;
#36 = EDGE_CURVE ( 'NONE', #46, #37, #123, .T. ) ;
#37 = VERTEX_POINT ( 'NONE', #139 ) ;
#38 =( GEOMETRIC_REPRESENTATION_CONTEXT ( 3 ) GLOBAL_UNCERTAINTY_ASSIGNED_CONTEXT ( ( #101 ) ) GLOBAL_UNIT_ASSIGNED_CONTEXT ( ( #104, #103, #102 ) ) REPRESENTATION_CONTEXT ( 'NONE', 'WORKASPACE' ) );
#39 = VERTEX_POINT ( 'NONE', #138 ) ;
#40 = ORIENTED_EDGE ( 'NONE', *, *, #9, .T. ) ;
#41 = FACE_OUTER_BOUND ( 'NONE', #8, .T. ) ;
#42 = DIRECTION ( 'NONE',  ( 1.000000000000000000, 0.0000000000000000000, 0.0000000000000000000 ) ) ;
#43 = DIRECTION ( 'NONE',  ( 0.0000000000000000000, 0.0000000000000000000, 1.000000000000000000 ) ) ;
#44 = AXIS2_PLACEMENT_3D ( 'NONE', #83, #43, #42 ) ;
#45 = EDGE_CURVE ( 'NONE', #39, #46, #168, .T. ) ;
#46 = VERTEX_POINT ( 'NONE', #159 ) ;
#47 = EDGE_LOOP ( 'NONE', ( #71, #48, #40, #14 ) ) ;
#48 = ORIENTED_EDGE ( 'NONE', *, *, #49, .T. ) ;
#49 = EDGE_CURVE ( 'NONE', #39, #54, #112, .T. ) ;
#50 = FACE_OUTER_BOUND ( 'NONE', #3, .T. ) ;
#51 = FACE_BOUND ( 'NONE', #27, .T. ) ;
#52 = CC_DESIGN_PERSON_AND_ORGANIZATION_ASSIGNMENT ( #192, #53, ( #204 ) ) ;
#53 = PERSON_AND_ORGANIZATION_ROLE ( 'creator' ) ;
#54 = VERTEX_POINT ( 'NONE', #108 ) ;
#55 = ADVANCED_FACE ( 'NONE', ( #107 ), #106, .F. ) ;
#56 = ORIENTED_EDGE ( 'NONE', *, *, #16, .T. ) ;
#57 = ORIENTED_EDGE ( 'NONE', *, *, #35, .F. ) ;
#58 = DIRECTION ( 'NONE',  ( 1.000000000000000000, 0.0000000000000000000, 0.0000000000000000000 ) ) ;
#59 = DIRECTION ( 'NONE',  ( 0.0000000000000000000, 0.0000000000000000000, 1.000000000000000000 ) ) ;
#60 = ORIENTED_EDGE ( 'NONE', *, *, #9, .F. ) ;
#61 = ORIENTED_EDGE ( 'NONE', *, *, #30, .T. ) ;
#62 = ADVANCED_FACE ( 'NONE', ( #100, #99 ), #137, .T. ) ;
#63 = ORIENTED_EDGE ( 'NONE', *, *, #68, .F. ) ;
#64 = CARTESIAN_POINT ( 'NONE',  ( 0.0000000000000000000, 0.0000000000000000000, 0.0000000000000000000 ) ) ;
#65 = AXIS2_PLACEMENT_3D ( 'NONE', #64, #85, #84 ) ;
#66 = CIRCLE ( 'NONE', #65, 0.07812500000000000000 ) ;
#67 = FACE_OUTER_BOUND ( 'NONE', #24, .T. ) ;
#68 = EDGE_CURVE ( 'NONE', #37, #54, #174, .T. ) ;
#69 = ORIENTED_EDGE ( 'NONE', *, *, #29, .F. ) ;
#70 = ADVANCED_FACE ( 'NONE', ( #175 ), #169, .F. ) ;
#71 = ORIENTED_EDGE ( 'NONE', *, *, #45, .F. ) ;
#72 = ORIENTED_EDGE ( 'NONE', *, *, #49, .F. ) ;
#73 = ORIENTED_EDGE ( 'NONE', *, *, #68, .T. ) ;
#74 = ADVANCED_BREP_SHAPE_REPRESENTATION ( '90126A509', ( #87, #182 ), #38 ) ;
#75 = DIRECTION ( 'NONE',  ( 0.0000000000000000000, 0.0000000000000000000, 1.000000000000000000 ) ) ;
#76 = VECTOR ( 'NONE', #75, 39.37007874015748100 ) ;
#77 = CARTESIAN_POINT ( 'NONE',  ( 0.1874999999999999700, 0.0000000000000000000, -0.02999999999999999900 ) ) ;
#78 = LINE ( 'NONE', #77, #76 ) ;
#79 = CARTESIAN_POINT ( 'NONE',  ( 0.0000000000000000000, 0.0000000000000000000, -0.02999999999999999900 ) ) ;
#80 = AXIS2_PLACEMENT_3D ( 'NONE', #79, #59, #58 ) ;
#81 = PLANE ( 'NONE',  #80 ) ;
#82 = CYLINDRICAL_SURFACE ( 'NONE', #44, 0.1874999999999999700 ) ;
#83 = CARTESIAN_POINT ( 'NONE',  ( 0.0000000000000000000, 0.0000000000000000000, -0.02999999999999999900 ) ) ;
#84 = DIRECTION ( 'NONE',  ( 1.000000000000000000, 0.0000000000000000000, 0.0000000000000000000 ) ) ;
#85 = DIRECTION ( 'NONE',  ( 0.0000000000000000000, 0.0000000000000000000, 1.000000000000000000 ) ) ;
#86 = ORIENTED_EDGE ( 'NONE', *, *, #16, .F. ) ;
#87 = MANIFOLD_SOLID_BREP ( 'NONE', #7 ) ;
#88 = DATE_AND_TIME ( #234, #235 ) ;
#89 = DATE_TIME_ROLE ( 'classification_date' ) ;
#90 = DIRECTION ( 'NONE',  ( 0.0000000000000000000, 0.0000000000000000000, 1.000000000000000000 ) ) ;
#91 = DIRECTION ( 'NONE',  ( 1.000000000000000000, 0.0000000000000000000, 0.0000000000000000000 ) ) ;
#92 = CARTESIAN_POINT ( 'NONE',  ( -0.1874999999999999700, 2.296212748401286500E-017, -0.02999999999999999900 ) ) ;
#93 = CARTESIAN_POINT ( 'NONE',  ( 0.1874999999999999700, 0.0000000000000000000, 0.0000000000000000000 ) ) ;
#94 = CARTESIAN_POINT ( 'NONE',  ( 0.1874999999999999700, 0.0000000000000000000, -0.02999999999999999900 ) ) ;
#95 = DIRECTION ( 'NONE',  ( 1.000000000000000000, 0.0000000000000000000, 0.0000000000000000000 ) ) ;
#96 = DIRECTION ( 'NONE',  ( 0.0000000000000000000, 0.0000000000000000000, 1.000000000000000000 ) ) ;
#97 = CARTESIAN_POINT ( 'NONE',  ( 0.0000000000000000000, 0.0000000000000000000, -0.02999999999999999900 ) ) ;
#98 = AXIS2_PLACEMENT_3D ( 'NONE', #97, #96, #95 ) ;
#99 = FACE_OUTER_BOUND ( 'NONE', #21, .T. ) ;
#100 = FACE_BOUND ( 'NONE', #28, .T. ) ;
#101 = UNCERTAINTY_MEASURE_WITH_UNIT (LENGTH_MEASURE( 1.000000000000000100E-005 ), #104, 'distance_accuracy_value', 'NONE');
#102 =( NAMED_UNIT ( * ) SI_UNIT ( $, .STERADIAN. ) SOLID_ANGLE_UNIT ( ) );
#103 =( NAMED_UNIT ( * ) PLANE_ANGLE_UNIT ( ) SI_UNIT ( $, .RADIAN. ) );
#104 =( CONVERSION_BASED_UNIT ( 'INCH', #105 ) LENGTH_UNIT ( ) NAMED_UNIT ( #147 ) );
#105 = LENGTH_MEASURE_WITH_UNIT ( LENGTH_MEASURE( 0.02539999999999999900 ), #148 );
#106 = CYLINDRICAL_SURFACE ( 'NONE', #98, 0.07812500000000000000 ) ;
#107 = FACE_OUTER_BOUND ( 'NONE', #19, .T. ) ;
#108 = CARTESIAN_POINT ( 'NONE',  ( -0.07812500000000000000, 9.567553118338694200E-018, 0.0000000000000000000 ) ) ;
#109 = DIRECTION ( 'NONE',  ( 0.0000000000000000000, 0.0000000000000000000, 1.000000000000000000 ) ) ;
#110 = VECTOR ( 'NONE', #109, 39.37007874015748100 ) ;
#111 = CARTESIAN_POINT ( 'NONE',  ( -0.07812500000000000000, 9.567553118338694200E-018, -0.02999999999999999900 ) ) ;
#112 = LINE ( 'NONE', #111, #110 ) ;
#113 = DIRECTION ( 'NONE',  ( 0.0000000000000000000, 0.0000000000000000000, 1.000000000000000000 ) ) ;
#114 = DIRECTION ( 'NONE',  ( 1.000000000000000000, 0.0000000000000000000, 0.0000000000000000000 ) ) ;
#115 = CARTESIAN_POINT ( 'NONE',  ( 0.0000000000000000000, 0.0000000000000000000, -0.02999999999999999900 ) ) ;
#116 = CIRCLE ( 'NONE', #164, 0.1874999999999999700 ) ;
#117 = DIRECTION ( 'NONE',  ( 0.0000000000000000000, 0.0000000000000000000, 1.000000000000000000 ) ) ;
#118 = VECTOR ( 'NONE', #117, 39.37007874015748100 ) ;
#119 = CARTESIAN_POINT ( 'NONE',  ( -0.1874999999999999700, 2.296212748401286500E-017, -0.02999999999999999900 ) ) ;
#120 = LINE ( 'NONE', #119, #118 ) ;
#121 = DIRECTION ( 'NONE',  ( 0.0000000000000000000, 0.0000000000000000000, 1.000000000000000000 ) ) ;
#122 = CARTESIAN_POINT ( 'NONE',  ( 0.07812500000000000000, 0.0000000000000000000, -0.02999999999999999900 ) ) ;
#123 = LINE ( 'NONE', #122, #140 ) ;
#124 = DIRECTION ( 'NONE',  ( 1.000000000000000000, 0.0000000000000000000, 0.0000000000000000000 ) ) ;
#125 = DIRECTION ( 'NONE',  ( 0.0000000000000000000, 0.0000000000000000000, 1.000000000000000000 ) ) ;
#126 = AXIS2_PLACEMENT_3D ( 'NONE', #145, #125, #124 ) ;
#127 = CIRCLE ( 'NONE', #126, 0.1874999999999999700 ) ;
#128 = CARTESIAN_POINT ( 'NONE',  ( -0.1874999999999999700, 2.296212748401286500E-017, 0.0000000000000000000 ) ) ;
#129 = DIRECTION ( 'NONE',  ( 1.000000000000000000, 0.0000000000000000000, 0.0000000000000000000 ) ) ;
#130 = DIRECTION ( 'NONE',  ( 0.0000000000000000000, 0.0000000000000000000, 1.000000000000000000 ) ) ;
#131 = AXIS2_PLACEMENT_3D ( 'NONE', #153, #130, #129 ) ;
#132 = CIRCLE ( 'NONE', #131, 0.1874999999999999700 ) ;
#133 = DIRECTION ( 'NONE',  ( 1.000000000000000000, 0.0000000000000000000, 0.0000000000000000000 ) ) ;
#134 = DIRECTION ( 'NONE',  ( 0.0000000000000000000, 0.0000000000000000000, 1.000000000000000000 ) ) ;
#135 = CARTESIAN_POINT ( 'NONE',  ( 0.0000000000000000000, 0.0000000000000000000, 0.0000000000000000000 ) ) ;
#136 = AXIS2_PLACEMENT_3D ( 'NONE', #135, #134, #133 ) ;
#137 = PLANE ( 'NONE',  #136 ) ;
#138 = CARTESIAN_POINT ( 'NONE',  ( -0.07812500000000000000, 9.567553118338694200E-018, -0.02999999999999999900 ) ) ;
#139 = CARTESIAN_POINT ( 'NONE',  ( 0.07812500000000000000, 0.0000000000000000000, 0.0000000000000000000 ) ) ;
#140 = VECTOR ( 'NONE', #121, 39.37007874015748100 ) ;
#141 = CYLINDRICAL_SURFACE ( 'NONE', #161, 0.1874999999999999700 ) ;
#142 = DIRECTION ( 'NONE',  ( 0.0000000000000000000, 0.0000000000000000000, 1.000000000000000000 ) ) ;
#143 = AXIS2_PLACEMENT_3D ( 'NONE', #158, #142, #146 ) ;
#144 = CIRCLE ( 'NONE', #143, 0.1874999999999999700 ) ;
#145 = CARTESIAN_POINT ( 'NONE',  ( 0.0000000000000000000, 0.0000000000000000000, -0.02999999999999999900 ) ) ;
#146 = DIRECTION ( 'NONE',  ( 1.000000000000000000, 0.0000000000000000000, 0.0000000000000000000 ) ) ;
#147 = DIMENSIONAL_EXPONENTS ( 1.000000000000000000, 0.0000000000000000000, 0.0000000000000000000, 0.0000000000000000000, 0.0000000000000000000, 0.0000000000000000000, 0.0000000000000000000 ) ;
#148 =( LENGTH_UNIT ( ) NAMED_UNIT ( * ) SI_UNIT ( $, .METRE. ) );
#149 = DIRECTION ( 'NONE',  ( 1.000000000000000000, 0.0000000000000000000, 0.0000000000000000000 ) ) ;
#150 = DIRECTION ( 'NONE',  ( 0.0000000000000000000, 0.0000000000000000000, 1.000000000000000000 ) ) ;
#151 = CARTESIAN_POINT ( 'NONE',  ( 0.0000000000000000000, 0.0000000000000000000, -0.02999999999999999900 ) ) ;
#152 = AXIS2_PLACEMENT_3D ( 'NONE', #151, #150, #149 ) ;
#153 = CARTESIAN_POINT ( 'NONE',  ( 0.0000000000000000000, 0.0000000000000000000, 0.0000000000000000000 ) ) ;
#154 = CARTESIAN_POINT ( 'NONE',  ( 0.0000000000000000000, 0.0000000000000000000, -0.02999999999999999900 ) ) ;
#155 = CARTESIAN_POINT ( 'NONE',  ( 0.0000000000000000000, 0.0000000000000000000, -0.02999999999999999900 ) ) ;
#156 = AXIS2_PLACEMENT_3D ( 'NONE', #155, #113, #91 ) ;
#157 = CIRCLE ( 'NONE', #156, 0.07812500000000000000 ) ;
#158 = CARTESIAN_POINT ( 'NONE',  ( 0.0000000000000000000, 0.0000000000000000000, 0.0000000000000000000 ) ) ;
#159 = CARTESIAN_POINT ( 'NONE',  ( 0.07812500000000000000, 0.0000000000000000000, -0.02999999999999999900 ) ) ;
#160 = DIRECTION ( 'NONE',  ( 1.000000000000000000, 0.0000000000000000000, 0.0000000000000000000 ) ) ;
#161 = AXIS2_PLACEMENT_3D ( 'NONE', #154, #90, #114 ) ;
#162 = DIRECTION ( 'NONE',  ( 1.000000000000000000, 0.0000000000000000000, 0.0000000000000000000 ) ) ;
#163 = DIRECTION ( 'NONE',  ( 0.0000000000000000000, 0.0000000000000000000, 1.000000000000000000 ) ) ;
#164 = AXIS2_PLACEMENT_3D ( 'NONE', #115, #163, #162 ) ;
#165 = DIRECTION ( 'NONE',  ( 0.0000000000000000000, 0.0000000000000000000, 1.000000000000000000 ) ) ;
#166 = CARTESIAN_POINT ( 'NONE',  ( 0.0000000000000000000, 0.0000000000000000000, -0.02999999999999999900 ) ) ;
#167 = AXIS2_PLACEMENT_3D ( 'NONE', #166, #165, #160 ) ;
#168 = CIRCLE ( 'NONE', #167, 0.07812500000000000000 ) ;
#169 = CYLINDRICAL_SURFACE ( 'NONE', #152, 0.07812500000000000000 ) ;
#170 = DIRECTION ( 'NONE',  ( 1.000000000000000000, 0.0000000000000000000, 0.0000000000000000000 ) ) ;
#171 = DIRECTION ( 'NONE',  ( 0.0000000000000000000, 0.0000000000000000000, 1.000000000000000000 ) ) ;
#172 = CARTESIAN_POINT ( 'NONE',  ( 0.0000000000000000000, 0.0000000000000000000, 0.0000000000000000000 ) ) ;
#173 = AXIS2_PLACEMENT_3D ( 'NONE', #172, #171, #170 ) ;
#174 = CIRCLE ( 'NONE', #173, 0.07812500000000000000 ) ;
#175 = FACE_OUTER_BOUND ( 'NONE', #47, .T. ) ;
#176 = DATE_AND_TIME ( #229, #211 ) ;
#177 = APPROVAL_DATE_TIME ( #176, #247 ) ;
#178 = CC_DESIGN_APPROVAL ( #227, ( #213 ) ) ;
#179 = CC_DESIGN_DATE_AND_TIME_ASSIGNMENT ( #88, #89, ( #240 ) ) ;
#180 = APPROVAL_PERSON_ORGANIZATION ( #248, #247, #246 ) ;
#181 = PERSON ( 'UNSPECIFIED', 'UNSPECIFIED', 'UNSPECIFIED', ('UNSPECIFIED'), ('UNSPECIFIED'), ('UNSPECIFIED') ) ;
#182 = AXIS2_PLACEMENT_3D ( 'NONE', #188, #187, #189 ) ;
#183 = APPLICATION_CONTEXT ( 'configuration controlled 3d designs of mechanical parts and assemblies' ) ;
#184 = PRODUCT ( '90126A509', '90126A509', '', ( #185 ) ) ;
#185 = MECHANICAL_CONTEXT ( 'NONE', #183, 'mechanical' ) ;
#186 = APPLICATION_PROTOCOL_DEFINITION ( 'international standard', 'config_control_design', 1994, #183 ) ;
#187 = DIRECTION ( 'NONE',  ( 0.0000000000000000000, 0.0000000000000000000, 1.000000000000000000 ) ) ;
#188 = CARTESIAN_POINT ( 'NONE',  ( 0.0000000000000000000, 0.0000000000000000000, 0.0000000000000000000 ) ) ;
#189 = DIRECTION ( 'NONE',  ( 1.000000000000000000, 0.0000000000000000000, 0.0000000000000000000 ) ) ;
#190 = ORGANIZATION ( 'UNSPECIFIED', 'UNSPECIFIED', '' ) ;
#191 = PERSON_AND_ORGANIZATION ( #181, #190 ) ;
#192 = PERSON_AND_ORGANIZATION ( #181, #190 ) ;
#193 = CC_DESIGN_APPROVAL ( #201, ( #204 ) ) ;
#194 = APPROVAL_DATE_TIME ( #195, #201 ) ;
#195 = DATE_AND_TIME ( #196, #197 ) ;
#196 = CALENDAR_DATE ( 2009, 20, 10 ) ;
#197 = LOCAL_TIME ( 10, 53, 16.00000000000000000, #198 ) ;
#198 = COORDINATED_UNIVERSAL_TIME_OFFSET ( 6, 0, .BEHIND. ) ;
#199 = APPROVAL_PERSON_ORGANIZATION ( #203, #201, #200 ) ;
#200 = APPROVAL_ROLE ( '' ) ;
#201 = APPROVAL ( #202, 'UNSPECIFIED' ) ;
#202 = APPROVAL_STATUS ( 'not_yet_approved' ) ;
#203 = PERSON_AND_ORGANIZATION ( #181, #190 ) ;
#204 = PRODUCT_DEFINITION ( 'UNKNOWN', '', #213, #205 ) ;
#205 = DESIGN_CONTEXT ( 'detailed design', #207, 'design' ) ;
#206 = APPLICATION_PROTOCOL_DEFINITION ( 'international standard', 'config_control_design', 1994, #207 ) ;
#207 = APPLICATION_CONTEXT ( 'configuration controlled 3d designs of mechanical parts and assemblies' ) ;
#208 = CC_DESIGN_PERSON_AND_ORGANIZATION_ASSIGNMENT ( #191, #209, ( #184 ) ) ;
#209 = PERSON_AND_ORGANIZATION_ROLE ( 'design_owner' ) ;
#210 = COORDINATED_UNIVERSAL_TIME_OFFSET ( 6, 0, .BEHIND. ) ;
#211 = LOCAL_TIME ( 10, 53, 16.00000000000000000, #210 ) ;
#212 = COORDINATED_UNIVERSAL_TIME_OFFSET ( 6, 0, .BEHIND. ) ;
#213 = PRODUCT_DEFINITION_FORMATION_WITH_SPECIFIED_SOURCE ( 'ANY', '', #184, .NOT_KNOWN. ) ;
#214 = DATE_AND_TIME ( #215, #228 ) ;
#215 = CALENDAR_DATE ( 2009, 20, 10 ) ;
#216 = CC_DESIGN_DATE_AND_TIME_ASSIGNMENT ( #214, #217, ( #204 ) ) ;
#217 = DATE_TIME_ROLE ( 'creation_date' ) ;
#218 = APPROVAL_STATUS ( 'not_yet_approved' ) ;
#219 = PERSON_AND_ORGANIZATION ( #181, #190 ) ;
#220 = APPROVAL_DATE_TIME ( #221, #227 ) ;
#221 = DATE_AND_TIME ( #222, #223 ) ;
#222 = CALENDAR_DATE ( 2009, 20, 10 ) ;
#223 = LOCAL_TIME ( 10, 53, 16.00000000000000000, #224 ) ;
#224 = COORDINATED_UNIVERSAL_TIME_OFFSET ( 6, 0, .BEHIND. ) ;
#225 = APPROVAL_PERSON_ORGANIZATION ( #219, #227, #226 ) ;
#226 = APPROVAL_ROLE ( '' ) ;
#227 = APPROVAL ( #218, 'UNSPECIFIED' ) ;
#228 = LOCAL_TIME ( 10, 53, 16.00000000000000000, #212 ) ;
#229 = CALENDAR_DATE ( 2009, 20, 10 ) ;
#230 = CC_DESIGN_APPROVAL ( #247, ( #240 ) ) ;
#231 = PERSON_AND_ORGANIZATION ( #181, #190 ) ;
#232 = PERSON_AND_ORGANIZATION_ROLE ( 'creator' ) ;
#233 = PERSON_AND_ORGANIZATION ( #181, #190 ) ;
#234 = CALENDAR_DATE ( 2009, 20, 10 ) ;
#235 = LOCAL_TIME ( 10, 53, 16.00000000000000000, #236 ) ;
#236 = COORDINATED_UNIVERSAL_TIME_OFFSET ( 6, 0, .BEHIND. ) ;
#237 = CC_DESIGN_PERSON_AND_ORGANIZATION_ASSIGNMENT ( #239, #238, ( #240 ) ) ;
#238 = PERSON_AND_ORGANIZATION_ROLE ( 'classification_officer' ) ;
#239 = PERSON_AND_ORGANIZATION ( #181, #190 ) ;
#240 = SECURITY_CLASSIFICATION ( '', '', #241 ) ;
#241 = SECURITY_CLASSIFICATION_LEVEL ( 'unclassified' ) ;
#242 = CC_DESIGN_PERSON_AND_ORGANIZATION_ASSIGNMENT ( #231, #243, ( #213 ) ) ;
#243 = PERSON_AND_ORGANIZATION_ROLE ( 'design_supplier' ) ;
#244 = CC_DESIGN_PERSON_AND_ORGANIZATION_ASSIGNMENT ( #233, #232, ( #213 ) ) ;
#245 = APPROVAL_STATUS ( 'not_yet_approved' ) ;
#246 = APPROVAL_ROLE ( '' ) ;
#247 = APPROVAL ( #245, 'UNSPECIFIED' ) ;
#248 = PERSON_AND_ORGANIZATION ( #181, #190 ) ;
#249 = CC_DESIGN_SECURITY_CLASSIFICATION ( #240, ( #213 ) ) ;
#250 = SHAPE_DEFINITION_REPRESENTATION ( #252, #74 ) ;
#251 = PRODUCT_RELATED_PRODUCT_CATEGORY ( 'detail', '', ( #184 ) ) ;
#252 = PRODUCT_DEFINITION_SHAPE ( 'NONE', 'NONE',  #204 ) ;
ENDSEC;
END-ISO-10303-21;
